  0
SECTION
  2
HEADER
  9
$ACADVER
  1
AC1015
  9
$ACADMAINTVER
 70
     6
  9
$DWGCODEPAGE
  3
ANSI_1254
  9
$INSBASE
 10
0.0
 20
0.0
 30
0.0
  9
$EXTMIN
 10
0.0
 20
0.0
 30
0.0
  9
$EXTMAX
 10
279.4
 20
215.9
 30
0.0
  9
$LIMMIN
 10
0.0
 20
0.0
  9
$LIMMAX
 10
279.4
 20
215.9
  9
$ORTHOMODE
 70
     0
  9
$REGENMODE
 70
     1
  9
$FILLMODE
 70
     1
  9
$QTEXTMODE
 70
     0
  9
$MIRRTEXT
 70
     1
  9
$LTSCALE
 40
1.0
  9
$ATTMODE
 70
     1
  9
$TEXTSIZE
 40
3.5
  9
$TRACEWID
 40
1.0
  9
$TEXTSTYLE
  7
Standard
  9
$CLAYER
  8
0
  9
$CELTYPE
  6
ByLayer
  9
$CECOLOR
 62
   256
  9
$CELTSCALE
 40
1.0
  9
$DISPSILH
 70
     0
  9
$DIMSCALE
 40
1.0
  9
$DIMASZ
 40
3.5
  9
$DIMEXO
 40
1.0
  9
$DIMDLI
 40
3.75
  9
$DIMRND
 40
0.0
  9
$DIMDLE
 40
0.0
  9
$DIMEXE
 40
1.0
  9
$DIMTP
 40
0.0
  9
$DIMTM
 40
0.0
  9
$DIMTXT
 40
3.5
  9
$DIMCEN
 40
2.5
  9
$DIMTSZ
 40
0.0
  9
$DIMTOL
 70
     0
  9
$DIMLIM
 70
     0
  9
$DIMTIH
 70
     1
  9
$DIMTOH
 70
     1
  9
$DIMSE1
 70
     0
  9
$DIMSE2
 70
     0
  9
$DIMTAD
 70
     1
  9
$DIMZIN
 70
     0
  9
$DIMBLK
  1

  9
$DIMASO
 70
     1
  9
$DIMSHO
 70
     1
  9
$DIMPOST
  1

  9
$DIMAPOST
  1

  9
$DIMALT
 70
     0
  9
$DIMALTD
 70
     3
  9
$DIMALTF
 40
0.0393700787
  9
$DIMLFAC
 40
1.0
  9
$DIMTOFL
 70
     1
  9
$DIMTVP
 40
0.0
  9
$DIMTIX
 70
     0
  9
$DIMSOXD
 70
     0
  9
$DIMSAH
 70
     0
  9
$DIMBLK1
  1

  9
$DIMBLK2
  1

  9
$DIMSTYLE
  2
ISO-25
  9
$DIMCLRD
 70
     0
  9
$DIMCLRE
 70
     0
  9
$DIMCLRT
 70
     0
  9
$DIMTFAC
 40
1.0
  9
$DIMGAP
 40
1.524
  9
$DIMJUST
 70
     0
  9
$DIMSD1
 70
     0
  9
$DIMSD2
 70
     0
  9
$DIMTOLJ
 70
     0
  9
$DIMTZIN
 70
     0
  9
$DIMALTZ
 70
     0
  9
$DIMALTTZ
 70
     0
  9
$DIMUPT
 70
     0
  9
$DIMDEC
 70
     2
  9
$DIMTDEC
 70
     2
  9
$DIMALTU
 70
     2
  9
$DIMALTTD
 70
     3
  9
$DIMTXSTY
  7
Standard
  9
$DIMAUNIT
 70
     0
  9
$DIMADEC
 70
     2
  9
$DIMALTRND
 40
0.0
  9
$DIMAZIN
 70
     0
  9
$DIMDSEP
 70
    44
  9
$DIMATFIT
 70
     3
  9
$DIMFRAC
 70
     0
  9
$DIMLDRBLK
  1

  9
$DIMLUNIT
 70
     2
  9
$DIMLWD
 70
    -2
  9
$DIMLWE
 70
    -2
  9
$DIMTMOVE
 70
     0
  9
$LUNITS
 70
     2
  9
$LUPREC
 70
     2
  9
$SKETCHINC
 40
1.0
  9
$FILLETRAD
 40
10.0
  9
$AUNITS
 70
     0
  9
$AUPREC
 70
     2
  9
$MENU
  1
.
  9
$ELEVATION
 40
0.0
  9
$PELEVATION
 40
0.0
  9
$THICKNESS
 40
0.0
  9
$LIMCHECK
 70
     0
  9
$CHAMFERA
 40
0.0
  9
$CHAMFERB
 40
0.0
  9
$CHAMFERC
 40
0.0
  9
$CHAMFERD
 40
0.0
  9
$SKPOLY
 70
     0
  9
$TDCREATE
 40
2458985.668827072
  9
$TDUCREATE
 40
2458985.543827072
  9
$TDUPDATE
 40
2458985.668827338
  9
$TDUUPDATE
 40
2458985.543827338
  9
$TDINDWG
 40
0.0000000116
  9
$TDUSRTIMER
 40
0.0000000116
  9
$USRTIMER
 70
     1
  9
$ANGBASE
 50
0.0
  9
$ANGDIR
 70
     0
  9
$PDMODE
 70
     0
  9
$PDSIZE
 40
-1.0
  9
$PLINEWID
 40
0.0
  9
$SPLFRAME
 70
     0
  9
$SPLINETYPE
 70
     6
  9
$SPLINESEGS
 70
     8
  9
$HANDSEED
  5
D2
  9
$SURFTAB1
 70
     6
  9
$SURFTAB2
 70
     6
  9
$SURFTYPE
 70
     6
  9
$SURFU
 70
     6
  9
$SURFV
 70
     6
  9
$UCSBASE
  2

  9
$UCSNAME
  2

  9
$UCSORG
 10
0.0
 20
0.0
 30
0.0
  9
$UCSXDIR
 10
1.0
 20
0.0
 30
0.0
  9
$UCSYDIR
 10
0.0
 20
1.0
 30
0.0
  9
$UCSORTHOREF
  2

  9
$UCSORTHOVIEW
 70
     0
  9
$UCSORGTOP
 10
0.0
 20
0.0
 30
0.0
  9
$UCSORGBOTTOM
 10
0.0
 20
0.0
 30
0.0
  9
$UCSORGLEFT
 10
0.0
 20
0.0
 30
0.0
  9
$UCSORGRIGHT
 10
0.0
 20
0.0
 30
0.0
  9
$UCSORGFRONT
 10
0.0
 20
0.0
 30
0.0
  9
$UCSORGBACK
 10
0.0
 20
0.0
 30
0.0
  9
$PUCSBASE
  2

  9
$PUCSNAME
  2

  9
$PUCSORG
 10
0.0
 20
0.0
 30
0.0
  9
$PUCSXDIR
 10
1.0
 20
0.0
 30
0.0
  9
$PUCSYDIR
 10
0.0
 20
1.0
 30
0.0
  9
$PUCSORTHOREF
  2

  9
$PUCSORTHOVIEW
 70
     0
  9
$PUCSORGTOP
 10
0.0
 20
0.0
 30
0.0
  9
$PUCSORGBOTTOM
 10
0.0
 20
0.0
 30
0.0
  9
$PUCSORGLEFT
 10
0.0
 20
0.0
 30
0.0
  9
$PUCSORGRIGHT
 10
0.0
 20
0.0
 30
0.0
  9
$PUCSORGFRONT
 10
0.0
 20
0.0
 30
0.0
  9
$PUCSORGBACK
 10
0.0
 20
0.0
 30
0.0
  9
$USERI1
 70
     0
  9
$USERI2
 70
     0
  9
$USERI3
 70
     0
  9
$USERI4
 70
     0
  9
$USERI5
 70
     0
  9
$USERR1
 40
0.0
  9
$USERR2
 40
0.0
  9
$USERR3
 40
0.0
  9
$USERR4
 40
0.0
  9
$USERR5
 40
0.0
  9
$WORLDVIEW
 70
     1
  9
$SHADEDGE
 70
     3
  9
$SHADEDIF
 70
    70
  9
$TILEMODE
 70
     1
  9
$MAXACTVP
 70
    64
  9
$PINSBASE
 10
0.0
 20
0.0
 30
0.0
  9
$PLIMCHECK
 70
     0
  9
$PEXTMIN
 10
1.0000000000E+20
 20
1.0000000000E+20
 30
1.0000000000E+20
  9
$PEXTMAX
 10
-1.0000000000E+20
 20
-1.0000000000E+20
 30
-1.0000000000E+20
  9
$PLIMMIN
 10
0.0
 20
0.0
  9
$PLIMMAX
 10
420.0
 20
297.0
  9
$UNITMODE
 70
     0
  9
$VISRETAIN
 70
     1
  9
$PLINEGEN
 70
     0
  9
$PSLTSCALE
 70
     1
  9
$TREEDEPTH
 70
  3020
  9
$CMLSTYLE
  2
Standard
  9
$CMLJUST
 70
     0
  9
$CMLSCALE
 40
20.0
  9
$PROXYGRAPHICS
 70
     1
  9
$MEASUREMENT
 70
     1
  9
$CELWEIGHT
370
    -1
  9
$ENDCAPS
280
     0
  9
$JOINSTYLE
280
     0
  9
$LWDISPLAY
290
     1
  9
$INSUNITS
 70
     4
  9
$HYPERLINKBASE
  1

  9
$STYLESHEET
  1

  9
$XEDIT
290
     1
  9
$CEPSNTYPE
380
     0
  9
$PSTYLEMODE
290
     1
  9
$FINGERPRINTGUID
  2
{9a9f59d8-15a1-42ab-b559-dd4f1d73d8a2}
  9
$VERSIONGUID
  2
{FAEB1C32-E019-11D5-929B-00C0DF256EC4}
  9
$EXTNAMES
290
     1
  9
$PSVPSCALE
 40
0.0
  9
$OLESTARTUP
290
     0
  0
ENDSEC
  0
SECTION
  2
CLASSES
  0
CLASS
  1
ACDBDICTIONARYWDFLT
  2
AcDbDictionaryWithDefault
  3
ObjectDBX Classes
 90
        0
280
     0
281
     0
  0
CLASS
  1
VISUALSTYLE
  2
AcDbVisualStyle
  3
ObjectDBX Classes
 90
     4095
280
     0
281
     0
  0
CLASS
  1
MATERIAL
  2
AcDbMaterial
  3
ObjectDBX Classes
 90
     1153
280
     0
281
     0
  0
CLASS
  1
SCALE
  2
AcDbScale
  3
ObjectDBX Classes
 90
     1153
280
     0
281
     0
  0
CLASS
  1
TABLESTYLE
  2
AcDbTableStyle
  3
ObjectDBX Classes
 90
     4095
280
     0
281
     0
  0
CLASS
  1
MLEADERSTYLE
  2
AcDbMLeaderStyle
  3
ACDB_MLEADERSTYLE_CLASS
 90
     4095
280
     0
281
     0
  0
CLASS
  1
SUN
  2
AcDbSun
  3
SCENEOE
 90
     1153
280
     0
281
     0
  0
CLASS
  1
ACDBPLACEHOLDER
  2
AcDbPlaceHolder
  3
ObjectDBX Classes
 90
        0
280
     0
281
     0
  0
CLASS
  1
LAYOUT
  2
AcDbLayout
  3
ObjectDBX Classes
 90
        0
280
     0
281
     0
  0
ENDSEC
  0
SECTION
  2
TABLES
  0
TABLE
  2
VPORT
  5
8
330
0
100
AcDbSymbolTable
 70
     1
  0
VPORT
  5
29
330
8
100
AcDbSymbolTableRecord
100
AcDbViewportTableRecord
  2
*Active
 70
     0
 10
0.0
 20
0.0
 11
1.0
 21
1.0
 12
139.7
 22
107.95
 13
0.0
 23
0.0
 14
10.0
 24
10.0
 15
10.0
 25
10.0
 16
0.0
 26
0.0
 36
1.0
 17
0.0
 27
0.0
 37
0.0
 40
215.9
 41
1.2941176471
 42
50.0
 43
0.0
 44
0.0
 50
0.0
 51
0.0
 71
     0
 72
  2000
 73
     1
 74
     3
 75
     0
 76
     0
 77
     0
 78
     0
281
     0
 65
     1
110
0.0
120
0.0
130
0.0
111
1.0
121
0.0
131
0.0
112
0.0
122
1.0
132
0.0
 79
     0
146
0.0
  0
ENDTAB
  0
TABLE
  2
LTYPE
  5
5
330
0
100
AcDbSymbolTable
 70
     6
  0
LTYPE
  5
14
330
5
100
AcDbSymbolTableRecord
100
AcDbLinetypeTableRecord
  2
ByBlock
 70
     0
  3

 72
    65
 73
     0
 40
0.0
  0
LTYPE
  5
15
330
5
100
AcDbSymbolTableRecord
100
AcDbLinetypeTableRecord
  2
ByLayer
 70
     0
  3

 72
    65
 73
     0
 40
0.0
  0
LTYPE
  5
16
330
5
100
AcDbSymbolTableRecord
100
AcDbLinetypeTableRecord
  2
Continuous
 70
     0
  3
Solid line
 72
    65
 73
     0
 40
0.0
  0
LTYPE
  5
6E
330
5
100
AcDbSymbolTableRecord
100
AcDbLinetypeTableRecord
  2
HIDDEN
 70
     0
  3
Hidden __ __ __ __ __ __ __ __ __ __ __ __ __ __
 72
    65
 73
     2
 40
1.905
 49
1.27
 74
     0
 49
-0.635
 74
     0
  0
LTYPE
  5
6F
330
5
100
AcDbSymbolTableRecord
100
AcDbLinetypeTableRecord
  2
PHANTOM
 70
     0
  3
Phantom ______  __  __  ______  __  __  ______
 72
    65
 73
     6
 40
12.7
 49
6.35
 74
     0
 49
-1.27
 74
     0
 49
1.27
 74
     0
 49
-1.27
 74
     0
 49
1.27
 74
     0
 49
-1.27
 74
     0
  0
LTYPE
  5
70
330
5
100
AcDbSymbolTableRecord
100
AcDbLinetypeTableRecord
  2
CENTER
 70
     0
  3
Center ____ _ ____ _ ____ _ ____ _ ____ _ ____
 72
    65
 73
     4
 40
10.16
 49
6.35
 74
     0
 49
-1.27
 74
     0
 49
1.27
 74
     0
 49
-1.27
 74
     0
  0
LTYPE
  5
71
330
5
100
AcDbSymbolTableRecord
100
AcDbLinetypeTableRecord
  2
CENTERX2
 70
     0
  3
Center (2x) ________  __  ________  __  _____
 72
    65
 73
     4
 40
20.32
 49
12.7
 74
     0
 49
-2.54
 74
     0
 49
2.54
 74
     0
 49
-2.54
 74
     0
  0
LTYPE
  5
72
330
5
100
AcDbSymbolTableRecord
100
AcDbLinetypeTableRecord
  2
DOT2
 70
     0
  3
Dot (.5x) ........................................
 72
    65
 73
     2
 40
0.635
 49
0.0
 74
     0
 49
-0.635
 74
     0
  0
ENDTAB
  0
TABLE
  2
LAYER
  5
2
330
0
100
AcDbSymbolTable
 70
    17
  0
LAYER
  5
10
330
2
100
AcDbSymbolTableRecord
100
AcDbLayerTableRecord
  2
0
 70
     0
 62
     7
  6
Continuous
370
    -3
390
F
  0
LAYER
  5
73
330
2
100
AcDbSymbolTableRecord
100
AcDbLayerTableRecord
  2
FORMAT
 70
     0
 62
     7
  6
Continuous
370
    -3
390
F
  0
LAYER
  5
74
330
2
100
AcDbSymbolTableRecord
100
AcDbLayerTableRecord
  2
YARDIMCI_GEOMETRI
 70
     0
 62
    -6
  6
Continuous
290
     0
370
    -3
390
F
  0
LAYER
  5
75
330
2
100
AcDbSymbolTableRecord
100
AcDbLayerTableRecord
  2
SAYFA_CERCEVESI
 70
     0
 62
     7
  6
Continuous
370
    25
390
F
  0
LAYER
  5
76
330
2
100
AcDbSymbolTableRecord
100
AcDbLayerTableRecord
  2
ANTET
 70
     0
 62
     7
  6
Continuous
370
    -3
390
F
  0
LAYER
  5
77
330
2
100
AcDbSymbolTableRecord
100
AcDbLayerTableRecord
  2
OLCU
 70
     0
 62
   150
  6
Continuous
370
    -3
390
F
  0
LAYER
  5
78
330
2
100
AcDbSymbolTableRecord
100
AcDbLayerTableRecord
  2
METIN
 70
     0
 62
    96
  6
Continuous
370
    -3
390
F
  0
LAYER
  5
79
330
2
100
AcDbSymbolTableRecord
100
AcDbLayerTableRecord
  2
BALON
 70
     0
 62
     5
  6
Continuous
370
    -3
390
F
  0
LAYER
  5
7A
330
2
100
AcDbSymbolTableRecord
100
AcDbLayerTableRecord
  2
VURGU
 70
     0
 62
     7
  6
Continuous
370
    -3
390
F
  0
LAYER
  5
7B
330
2
100
AcDbSymbolTableRecord
100
AcDbLayerTableRecord
  2
SILIK
 70
     0
 62
     7
  6
Continuous
370
    -3
390
F
  0
LAYER
  5
7C
330
2
100
AcDbSymbolTableRecord
100
AcDbLayerTableRecord
  2
MODEL
 70
     0
 62
     7
  6
Continuous
370
    -3
390
F
  0
LAYER
  5
7D
330
2
100
AcDbSymbolTableRecord
100
AcDbLayerTableRecord
  2
DETAYLANDıRMA
 70
     0
 62
   190
  6
Continuous
370
    -3
390
F
  0
LAYER
  5
7E
330
2
100
AcDbSymbolTableRecord
100
AcDbLayerTableRecord
  2
TOLERANS
 70
     0
 62
   230
  6
Continuous
370
    -3
390
F
  0
LAYER
  5
7F
330
2
100
AcDbSymbolTableRecord
100
AcDbLayerTableRecord
  2
MERKEZ_CIZGILERI
 70
     0
 62
    30
  6
Continuous
370
    -3
390
F
  0
LAYER
  5
80
330
2
100
AcDbSymbolTableRecord
100
AcDbLayerTableRecord
  2
KESIT-DETAY_CIZGILERI
 70
     0
 62
     7
  6
Continuous
370
    -3
390
F
  0
LAYER
  5
81
330
2
100
AcDbSymbolTableRecord
100
AcDbLayerTableRecord
  2
\U+041E\U+0421\U+0415\U+0412\U+042B\U+0415
 70
     0
 62
     7
  6
Continuous
370
    -3
390
F
  0
LAYER
  5
82
330
2
100
AcDbSymbolTableRecord
100
AcDbLayerTableRecord
  2
\U+0412\U+041E\U+0414\U+042F\U+041D\U+042B\U+0415_\U+0417\U+041D\U+0410\U+041A\U+0418
 70
     0
 62
    11
  6
Continuous
370
    -3
390
F
  0
ENDTAB
  0
TABLE
  2
STYLE
  5
3
330
0
100
AcDbSymbolTable
 70
     1
  0
STYLE
  5
11
330
3
100
AcDbSymbolTableRecord
100
AcDbTextStyleTableRecord
  2
Standard
 70
     0
 40
0.0
 41
1.0
 50
0.0
 71
     0
 42
3.5
  3
txt
  4

  0
ENDTAB
  0
TABLE
  2
VIEW
  5
6
330
0
100
AcDbSymbolTable
 70
     0
  0
ENDTAB
  0
TABLE
  2
UCS
  5
7
330
0
100
AcDbSymbolTable
 70
     0
  0
ENDTAB
  0
TABLE
  2
APPID
  5
9
330
0
100
AcDbSymbolTable
 70
     1
  0
APPID
  5
12
330
9
100
AcDbSymbolTableRecord
100
AcDbRegAppTableRecord
  2
ACAD
 70
     0
  0
ENDTAB
  0
TABLE
  2
DIMSTYLE
  5
A
330
0
100
AcDbSymbolTable
 70
     1
100
AcDbDimStyleTable
  0
DIMSTYLE
105
27
330
A
100
AcDbSymbolTableRecord
100
AcDbDimStyleTableRecord
  2
ISO-25
 70
     0
 41
2.5
 42
0.625
 43
3.75
 44
1.25
 73
     0
 74
     0
 77
     1
 78
     8
140
2.5
141
2.5
143
0.0393700787
147
0.625
171
     3
172
     1
178
     0
271
     2
272
     2
274
     3
278
    44
283
     0
284
     8
340
11
  0
ENDTAB
  0
TABLE
  2
BLOCK_RECORD
  5
1
330
0
100
AcDbSymbolTable
 70
     3
  0
BLOCK_RECORD
  5
1F
330
1
100
AcDbSymbolTableRecord
100
AcDbBlockTableRecord
  2
*Model_Space
340
22
  0
BLOCK_RECORD
  5
1B
330
1
100
AcDbSymbolTableRecord
100
AcDbBlockTableRecord
  2
*Paper_Space
340
1E
  0
BLOCK_RECORD
  5
23
330
1
100
AcDbSymbolTableRecord
100
AcDbBlockTableRecord
  2
*Paper_Space0
340
26
  0
BLOCK_RECORD
  5
94
330
1
100
AcDbSymbolTableRecord
100
AcDbBlockTableRecord
  2
SW_CENTERMARKSYMBOL_0
340
0
102
{BLKREFS
331
9F
102
}
  0
BLOCK_RECORD
  5
A5
330
1
100
AcDbSymbolTableRecord
100
AcDbBlockTableRecord
  2
SW_CENTERMARKSYMBOL_1
340
0
102
{BLKREFS
331
B0
102
}
  0
ENDTAB
  0
ENDSEC
  0
SECTION
  2
BLOCKS
  0
BLOCK
  5
20
330
1F
100
AcDbEntity
  8
0
100
AcDbBlockBegin
  2
*Model_Space
 70
     0
 10
0.0
 20
0.0
 30
0.0
  3
*Model_Space
  1

  0
ENDBLK
  5
21
330
1F
100
AcDbEntity
  8
0
100
AcDbBlockEnd
  0
BLOCK
  5
1C
330
1B
100
AcDbEntity
 67
     1
  8
0
100
AcDbBlockBegin
  2
*Paper_Space
 70
     0
 10
0.0
 20
0.0
 30
0.0
  3
*Paper_Space
  1

  0
ENDBLK
  5
1D
330
1B
100
AcDbEntity
 67
     1
  8
0
100
AcDbBlockEnd
  0
BLOCK
  5
24
330
23
100
AcDbEntity
  8
0
100
AcDbBlockBegin
  2
*Paper_Space0
 70
     0
 10
0.0
 20
0.0
 30
0.0
  3
*Paper_Space0
  1

  0
ENDBLK
  5
25
330
23
100
AcDbEntity
  8
0
100
AcDbBlockEnd
  0
BLOCK
  5
95
330
94
100
AcDbEntity
  8
0
100
AcDbBlockBegin
  2
SW_CENTERMARKSYMBOL_0
 70
     0
 10
0.0
 20
0.0
 30
0.0
  3
SW_CENTERMARKSYMBOL_0
  1

  0
LINE
  5
97
330
94
100
AcDbEntity
  8
FORMAT
 62
     0
100
AcDbLine
 10
0.0
 20
0.0
 30
0.0
 11
0.0
 21
2.5
 31
0.0
  0
LINE
  5
98
330
94
100
AcDbEntity
  8
FORMAT
 62
     0
100
AcDbLine
 10
0.0
 20
0.0
 30
0.0
 11
-2.5
 21
0.0
 31
0.0
  0
LINE
  5
99
330
94
100
AcDbEntity
  8
FORMAT
 62
     0
100
AcDbLine
 10
0.0
 20
0.0
 30
0.0
 11
0.0
 21
-2.5
 31
0.0
  0
LINE
  5
9A
330
94
100
AcDbEntity
  8
FORMAT
 62
     0
100
AcDbLine
 10
0.0
 20
0.0
 30
0.0
 11
2.5
 21
0.0
 31
0.0
  0
LINE
  5
9B
330
94
100
AcDbEntity
  8
FORMAT
 62
     0
100
AcDbLine
 10
0.0
 20
5.0
 30
0.0
 11
0.0
 21
82.5
 31
0.0
  0
LINE
  5
9C
330
94
100
AcDbEntity
  8
FORMAT
 62
     0
100
AcDbLine
 10
-5.0
 20
0.0
 30
0.0
 11
-82.5
 21
0.0
 31
0.0
  0
LINE
  5
9D
330
94
100
AcDbEntity
  8
FORMAT
 62
     0
100
AcDbLine
 10
0.0
 20
-5.0
 30
0.0
 11
0.0
 21
-82.5
 31
0.0
  0
LINE
  5
9E
330
94
100
AcDbEntity
  8
FORMAT
 62
     0
100
AcDbLine
 10
5.0
 20
0.0
 30
0.0
 11
82.5
 21
0.0
 31
0.0
  0
ENDBLK
  5
96
330
94
100
AcDbEntity
  8
0
100
AcDbBlockEnd
  0
BLOCK
  5
A6
330
A5
100
AcDbEntity
  8
0
100
AcDbBlockBegin
  2
SW_CENTERMARKSYMBOL_1
 70
     0
 10
0.0
 20
0.0
 30
0.0
  3
SW_CENTERMARKSYMBOL_1
  1

  0
LINE
  5
A8
330
A5
100
AcDbEntity
  8
FORMAT
 62
     0
100
AcDbLine
 10
0.0
 20
0.0
 30
0.0
 11
0.0
 21
2.5
 31
0.0
  0
LINE
  5
A9
330
A5
100
AcDbEntity
  8
FORMAT
 62
     0
100
AcDbLine
 10
0.0
 20
0.0
 30
0.0
 11
-2.5
 21
0.0
 31
0.0
  0
LINE
  5
AA
330
A5
100
AcDbEntity
  8
FORMAT
 62
     0
100
AcDbLine
 10
0.0
 20
0.0
 30
0.0
 11
0.0
 21
-2.5
 31
0.0
  0
LINE
  5
AB
330
A5
100
AcDbEntity
  8
FORMAT
 62
     0
100
AcDbLine
 10
0.0
 20
0.0
 30
0.0
 11
2.5
 21
0.0
 31
0.0
  0
LINE
  5
AC
330
A5
100
AcDbEntity
  8
FORMAT
 62
     0
100
AcDbLine
 10
0.0
 20
5.0
 30
0.0
 11
0.0
 21
82.5
 31
0.0
  0
LINE
  5
AD
330
A5
100
AcDbEntity
  8
FORMAT
 62
     0
100
AcDbLine
 10
-5.0
 20
0.0
 30
0.0
 11
-82.5
 21
0.0
 31
0.0
  0
LINE
  5
AE
330
A5
100
AcDbEntity
  8
FORMAT
 62
     0
100
AcDbLine
 10
0.0
 20
-5.0
 30
0.0
 11
0.0
 21
-90.8995575629
 31
0.0
  0
LINE
  5
AF
330
A5
100
AcDbEntity
  8
FORMAT
 62
     0
100
AcDbLine
 10
5.0
 20
0.0
 30
0.0
 11
82.5
 21
0.0
 31
0.0
  0
ENDBLK
  5
A7
330
A5
100
AcDbEntity
  8
0
100
AcDbBlockEnd
  0
ENDSEC
  0
SECTION
  2
ENTITIES
  0
LINE
  5
83
330
1F
100
AcDbEntity
  8
0
  6
Continuous
 62
     7
370
    25
100
AcDbLine
 10
58.1184751306
 20
253.992681483
 30
0.0
 11
58.1184751306
 21
2.2626715695
 31
0.0
  0
LINE
  5
84
330
1F
100
AcDbEntity
  8
0
  6
Continuous
 62
     7
370
    25
100
AcDbLine
 10
218.1184715543
 20
2.2626715695
 30
0.0
 11
218.1184715543
 21
253.992681483
 31
0.0
  0
LINE
  5
85
330
1F
100
AcDbEntity
  8
0
  6
Continuous
 62
     7
370
    25
100
AcDbLine
 10
218.1184715543
 20
253.992681483
 30
0.0
 11
218.1184715543
 21
358.2626926696
 31
0.0
  0
LINE
  5
86
330
1F
100
AcDbEntity
  8
0
  6
Continuous
 62
     7
370
    25
100
AcDbLine
 10
218.1184715543
 20
-172.7373254503
 30
0.0
 11
218.1184715543
 21
2.2626715695
 31
0.0
  0
LINE
  5
87
330
1F
100
AcDbEntity
  8
0
  6
Continuous
 62
     7
370
    25
100
AcDbLine
 10
58.1184751306
 20
2.2626715695
 30
0.0
 11
58.1184751306
 21
-172.7373254503
 31
0.0
  0
LINE
  5
88
330
1F
100
AcDbEntity
  8
0
  6
Continuous
 62
     7
370
    25
100
AcDbLine
 10
58.1184751306
 20
358.2626926696
 30
0.0
 11
58.1184751306
 21
253.992681483
 31
0.0
  0
LWPOLYLINE
  5
89
330
1F
100
AcDbEntity
  8
0
  6
Continuous
 62
     7
370
    25
100
AcDbPolyline
 90
       90
 70
   128
 43
0.0
 10
138.1184733425
 20
303.8437115943
 10
133.1454766866
 20
303.7195253169
 10
128.1972550739
 20
303.3476221358
 10
123.2984610785
 20
302.7298199927
 10
118.4734995429
 20
301.8692183291
 10
113.7464079026
 20
300.7701086795
 10
109.1407365118
 20
299.4379448687
 10
104.6794294332
 20
297.8793728148
 10
100.3847173367
 20
296.1021411215
 10
96.2779908393
 20
294.1151606833
 10
92.3797129605
 20
291.9282662665
 10
88.7092999135
 20
289.5523953234
 10
85.2850428734
 20
286.9993495738
 10
82.1239999447
 20
284.2818844115
 10
79.2419179295
 20
281.4135002886
 10
76.6531578217
 20
278.40850232
 10
74.3706128512
 20
275.2818810736
 10
72.4056563292
 20
272.0491933619
 10
70.7680783186
 20
268.7265622412
 10
69.4660372053
 20
265.3305280005
 10
68.5060149942
 20
261.8779885565
 10
67.8928024087
 20
258.3861696517
 10
67.629454187
 20
254.8724758422
 10
67.7172741805
 20
251.3544010913
 10
68.1558302556
 20
247.8494691645
 10
68.9429393921
 20
244.3751144206
 10
70.0746676836
 20
240.9487116133
 10
71.5453973923
 20
237.5872778689
 10
73.3477896963
 20
234.3075620925
 10
75.4728591953
 20
231.125925759
 10
77.9100335155
 20
228.058223704
 10
80.6471570347
 20
225.1197147166
 10
83.6706063662
 20
222.325031737
 10
86.9653089855
 20
219.6881520545
 10
90.5148512636
 20
217.2221588885
 10
94.3015566979
 20
214.9393307959
 10
98.3065529678
 20
212.8511118685
 10
102.5098911438
 20
210.9678137099
 10
106.8906313692
 20
209.2988836562
 10
111.4269453053
 20
207.852606753
 10
116.0962353412
 20
206.6362249648
 10
120.8752389018
 20
205.6557285582
 10
125.7401476566
 20
204.9160945212
 10
130.6667239357
 20
204.4209289347
 10
135.6304250609
 20
204.1727053916
 10
140.606521624
 20
204.1727053916
 10
145.5702227492
 20
204.4209289347
 10
150.4967990283
 20
204.9160945212
 10
155.3617077831
 20
205.6557285582
 10
160.1407113437
 20
206.6362249648
 10
164.8100013797
 20
207.852606753
 10
169.3463153158
 20
209.2988836562
 10
173.7270555411
 20
210.9678137099
 10
177.9303937171
 20
212.8511118685
 10
181.935389987
 20
214.9393307959
 10
185.7220954214
 20
217.2221588885
 10
189.2716376994
 20
219.6881520545
 10
192.5663403187
 20
222.325031737
 10
195.5897896502
 20
225.1197147166
 10
198.3269131694
 20
228.058223704
 10
200.7640874897
 20
231.125925759
 10
202.8891569887
 20
234.3075620925
 10
204.6915492926
 20
237.5872778689
 10
206.1622790013
 20
240.9487116133
 10
207.2940072928
 20
244.3751144206
 10
208.0811164294
 20
247.8494691645
 10
208.5196725045
 20
251.3544010913
 10
208.607492498
 20
254.8724758422
 10
208.3441442762
 20
258.3861696517
 10
207.7309316907
 20
261.8779885565
 10
206.7709094797
 20
265.3305280005
 10
205.4688683663
 20
268.7265622412
 10
203.8312903557
 20
272.0491933619
 10
201.8663338337
 20
275.2818810736
 10
199.5837888632
 20
278.40850232
 10
196.9950287555
 20
281.4135002886
 10
194.1129467402
 20
284.2818844115
 10
190.9519038115
 20
286.9993495738
 10
187.5276467715
 20
289.5523953234
 10
183.8572337244
 20
291.9282662665
 10
179.9589558456
 20
294.1151606833
 10
175.8522293482
 20
296.1021411215
 10
171.5575172518
 20
297.8793728148
 10
167.0962101732
 20
299.4379448687
 10
162.4905387823
 20
300.7701086795
 10
157.7634471421
 20
301.8692183291
 10
152.9384856064
 20
302.7298199927
 10
148.039691611
 20
303.3476221358
 10
143.0914699983
 20
303.7195253169
 10
138.1184733425
 20
303.8437115943
  0
LWPOLYLINE
  5
8A
330
1F
100
AcDbEntity
  8
0
  6
Continuous
 62
     7
370
    25
100
AcDbPolyline
 90
       95
 70
   128
 43
0.0
 10
138.1184733425
 20
310.5612444674
 10
132.7750626903
 20
310.4349124228
 10
127.4555171792
 20
310.0565123355
 10
122.1835943822
 20
309.4276833331
 10
116.9828413938
 20
308.5513162409
 10
111.8764853988
 20
307.4312555586
 10
106.887330762
 20
306.0725080763
 10
102.0376621697
 20
304.4811832701
 10
97.3491421853
 20
302.6643442904
 10
92.84270694
 20
300.6301569735
 10
88.5384804521
 20
298.3876514231
 10
84.4556963954
 20
295.9468710219
 10
80.6125788901
 20
293.3187234198
 10
77.0262977992
 20
290.5149209296
 10
73.7128681455
 20
287.5480103289
 10
70.6870905076
 20
284.431223849
 10
67.9624802385
 20
281.1785089766
 10
65.5511966858
 20
277.8043496405
 10
63.4640208397
 20
274.3238556182
 10
61.7102733765
 20
270.7525539195
 10
60.2977774058
 20
267.1064185893
 10
59.2328510199
 20
263.4016918933
 10
58.5202476893
 20
259.6549439227
 10
58.1631488119
 20
255.8829235827
 10
58.1631488119
 20
252.1024393832
 10
58.5202476893
 20
248.3304190432
 10
59.2328510199
 20
244.5836710726
 10
60.2977774058
 20
240.8789741789
 10
61.7102733765
 20
237.2328090464
 10
63.4640208397
 20
233.6615073477
 10
65.5511966858
 20
230.1810133254
 10
67.9624802385
 20
226.8068837916
 10
70.6870905076
 20
223.5541689192
 10
73.7128681455
 20
220.4373824393
 10
77.0262977992
 20
217.4704718386
 10
80.6125788901
 20
214.6666693484
 10
84.4556963954
 20
212.0385217463
 10
88.5384804521
 20
209.5977413451
 10
92.84270694
 20
207.3552357947
 10
97.3491421853
 20
205.3210186755
 10
102.0376621697
 20
203.5042094981
 10
106.887330762
 20
201.9128548896
 10
111.8764853988
 20
200.5541372096
 10
116.9828413938
 20
199.4340765273
 10
122.1835943822
 20
198.5576796328
 10
127.4555171792
 20
197.9288804328
 10
132.7750626903
 20
197.5504803454
 10
138.1184733425
 20
197.4241483008
 10
143.4618839946
 20
197.5504803454
 10
148.7814295058
 20
197.9288804328
 10
154.0533523027
 20
198.5576796328
 10
159.2541052912
 20
199.4340765273
 10
164.3604612861
 20
200.5541372096
 10
169.349615923
 20
201.9128548896
 10
174.1992845152
 20
203.5042094981
 10
178.8878044997
 20
205.3210186755
 10
183.3942397449
 20
207.3552357947
 10
187.6984662328
 20
209.5977413451
 10
191.7812502895
 20
212.0385217463
 10
195.6243677948
 20
214.6666693484
 10
199.2106488858
 20
217.4704718386
 10
202.5240785394
 20
220.4373824393
 10
205.5498561774
 20
223.5541689192
 10
208.2744664464
 20
226.8068837916
 10
210.6857499991
 20
230.1810133254
 10
212.7729258452
 20
233.6615073477
 10
214.5266733084
 20
237.2328090464
 10
215.9391692791
 20
240.8789741789
 10
217.004095665
 20
244.5836710726
 10
217.7166989956
 20
248.3304190432
 10
218.0737978731
 20
252.1024393832
 10
218.0737978731
 20
255.8829235827
 10
217.7166989956
 20
259.6549439227
 10
217.004095665
 20
263.4016918933
 10
215.9391692791
 20
267.1064185893
 10
214.5266733084
 20
270.7525539195
 10
212.7729258452
 20
274.3238556182
 10
210.6857499991
 20
277.8043496405
 10
208.2744664464
 20
281.1785089766
 10
205.5498561774
 20
284.431223849
 10
202.5240785394
 20
287.5480103289
 10
199.2106488858
 20
290.5149209296
 10
195.6243677948
 20
293.3187234198
 10
191.7812502895
 20
295.9468710219
 10
187.6984662328
 20
298.3876514231
 10
183.3942397449
 20
300.6301569735
 10
178.8878044997
 20
302.6643442904
 10
174.1992845152
 20
304.4811832701
 10
169.349615923
 20
306.0725080763
 10
164.3604612861
 20
307.4312555586
 10
159.2541052912
 20
308.5513162409
 10
154.0533523027
 20
309.4276833331
 10
148.7814295058
 20
310.0565123355
 10
143.4618839946
 20
310.4349124228
 10
138.1184733425
 20
310.5612444674
  0
ELLIPSE
  5
8B
330
1F
100
AcDbEntity
  8
0
  6
Continuous
 62
     7
370
    25
100
AcDbEllipse
 10
138.1184733425
 20
2.2626745497
 30
0.0
 11
80.00000000000003
 21
0.0
 31
0.0
210
0.0
220
0.0
230
1.0
 40
0.4142135624
 41
3.141592653589792
 42
6.283185307179586
  0
LINE
  5
8C
330
1F
100
AcDbEntity
  8
0
  6
Continuous
 62
     7
370
    25
100
AcDbLine
 10
58.1184751306
 20
-172.7373254503
 30
0.0
 11
218.1184715543
 21
-172.7373254503
 31
0.0
  0
LINE
  5
8D
330
1F
100
AcDbEntity
  8
0
  6
Continuous
 62
     7
370
    25
100
AcDbLine
 10
58.1184751306
 20
358.2626926696
 30
0.0
 11
218.1184715543
 21
358.2626926696
 31
0.0
  0
LINE
  5
8E
330
1F
100
AcDbEntity
  8
0
  6
Continuous
 62
     7
370
    25
100
AcDbLine
 10
218.1184715543
 20
538.7876208848
 30
0.0
 11
218.1184715543
 21
790.5176456994
 31
0.0
  0
LINE
  5
8F
330
1F
100
AcDbEntity
  8
0
  6
Continuous
 62
     7
370
    25
100
AcDbLine
 10
58.1184751306
 20
790.5176456994
 30
0.0
 11
58.1184751306
 21
538.7876208848
 31
0.0
  0
CIRCLE
  5
90
330
1F
100
AcDbEntity
  8
0
  6
Continuous
 62
     7
370
    25
100
AcDbCircle
 10
138.1184733425
 20
790.5176456994
 30
0.0
 40
70.50000000000001
  0
CIRCLE
  5
91
330
1F
100
AcDbEntity
  8
0
  6
Continuous
 62
     7
370
    25
100
AcDbCircle
 10
138.1184733425
 20
790.5176456994
 30
0.0
 40
79.99999999999999
  0
LWPOLYLINE
  5
92
330
1F
100
AcDbEntity
  8
0
  6
Continuous
 62
     7
370
    25
100
AcDbPolyline
 90
       95
 70
   128
 43
0.0
 10
138.1184733425
 20
595.3561689681
 10
132.7750626903
 20
595.2298518247
 10
127.4555171792
 20
594.8514368362
 10
122.1835943822
 20
594.2226376361
 10
116.9828413938
 20
593.3462407417
 10
111.8764853988
 20
592.2261800594
 10
106.887330762
 20
590.8674474782
 10
102.0376621697
 20
589.276122672
 10
97.3491421853
 20
587.4592985935
 10
92.84270694
 20
585.4250963754
 10
88.5384804521
 20
583.182590825
 10
84.4556963954
 20
580.7418104238
 10
80.6125788901
 20
578.1136479205
 10
77.0262977992
 20
575.3098603315
 10
73.7128681455
 20
572.3429497308
 10
70.6870905076
 20
569.2261632509
 10
67.9624802385
 20
565.9734483785
 10
65.5511966858
 20
562.5993039436
 10
63.4640208397
 20
559.1188099212
 10
61.7102733765
 20
555.5475082225
 10
60.2977774058
 20
551.9013579912
 10
59.2328510199
 20
548.1966461963
 10
58.5202476893
 20
544.4498982257
 10
58.1631488119
 20
540.6778629846
 10
58.1631488119
 20
536.8974085874
 10
58.5202476893
 20
533.1253584451
 10
59.2328510199
 20
529.3786104745
 10
60.2977774058
 20
525.6739135808
 10
61.7102733765
 20
522.0277484483
 10
63.4640208397
 20
518.4564467496
 10
65.5511966858
 20
514.9759527272
 10
67.9624802385
 20
511.6018231935
 10
70.6870905076
 20
508.3491083211
 10
73.7128681455
 20
505.2323218412
 10
77.0262977992
 20
502.2654112405
 10
80.6125788901
 20
499.4616087503
 10
84.4556963954
 20
496.8334611482
 10
88.5384804521
 20
494.392680747
 10
92.84270694
 20
492.1501751966
 10
97.3491421853
 20
490.1159580774
 10
102.0376621697
 20
488.2991489
 10
106.887330762
 20
486.7078240938
 10
111.8764853988
 20
485.3490766115
 10
116.9828413938
 20
484.2290159292
 10
122.1835943822
 20
483.3526190347
 10
127.4555171792
 20
482.7238198346
 10
132.7750626903
 20
482.3454197473
 10
138.1184733425
 20
482.2190877027
 10
143.4618839946
 20
482.3454197473
 10
148.7814295058
 20
482.7238198346
 10
154.0533523027
 20
483.3526190347
 10
159.2541052912
 20
484.2290159292
 10
164.3604612861
 20
485.3490766115
 10
169.349615923
 20
486.7078240938
 10
174.1992845152
 20
488.2991489
 10
178.8878044997
 20
490.1159580774
 10
183.3942397449
 20
492.1501751966
 10
187.6984662328
 20
494.392680747
 10
191.7812502895
 20
496.8334611482
 10
195.6243677948
 20
499.4616087503
 10
199.2106488858
 20
502.2654112405
 10
202.5240785394
 20
505.2323218412
 10
205.5498561774
 20
508.3491083211
 10
208.2744664464
 20
511.6018231935
 10
210.6857499991
 20
514.9759527272
 10
212.7729258452
 20
518.4564467496
 10
214.5266733084
 20
522.0277484483
 10
215.9391692791
 20
525.6739135808
 10
217.004095665
 20
529.3786104745
 10
217.7166989956
 20
533.1253584451
 10
218.0737978731
 20
536.8974085874
 10
218.0737978731
 20
540.6778629846
 10
217.7166989956
 20
544.4498982257
 10
217.004095665
 20
548.1966461963
 10
215.9391692791
 20
551.9013579912
 10
214.5266733084
 20
555.5475082225
 10
212.7729258452
 20
559.1188099212
 10
210.6857499991
 20
562.5993039436
 10
208.2744664464
 20
565.9734483785
 10
205.5498561774
 20
569.2261632509
 10
202.5240785394
 20
572.3429497308
 10
199.2106488858
 20
575.3098603315
 10
195.6243677948
 20
578.1136479205
 10
191.7812502895
 20
580.7418104238
 10
187.6984662328
 20
583.182590825
 10
183.3942397449
 20
585.4250963754
 10
178.8878044997
 20
587.4592985935
 10
174.1992845152
 20
589.276122672
 10
169.349615923
 20
590.8674474782
 10
164.3604612861
 20
592.2261800594
 10
159.2541052912
 20
593.3462407417
 10
154.0533523027
 20
594.2226376361
 10
148.7814295058
 20
594.8514368362
 10
143.4618839946
 20
595.2298518247
 10
138.1184733425
 20
595.3561689681
  0
LWPOLYLINE
  5
93
330
1F
100
AcDbEntity
  8
0
  6
Continuous
 62
     7
370
    25
100
AcDbPolyline
 90
       90
 70
   128
 43
0.0
 10
138.1184733425
 20
588.6386658973
 10
133.1454766866
 20
588.5144796199
 10
128.1972550739
 20
588.1425615377
 10
123.2984610785
 20
587.5247742957
 10
118.4734995429
 20
586.6641726321
 10
113.7464079026
 20
585.5650480813
 10
109.1407365118
 20
584.2328842706
 10
104.6794294332
 20
582.6743122167
 10
100.3847173367
 20
580.8970954246
 10
96.2779908393
 20
578.9101000852
 10
92.3797129605
 20
576.7232056684
 10
88.7092999135
 20
574.3473198242
 10
85.2850428734
 20
571.7942889756
 10
82.1239999447
 20
569.0768089122
 10
79.2419179295
 20
566.2084396905
 10
76.6531578217
 20
563.203456623
 10
74.3706128512
 20
560.0768353767
 10
72.4056563292
 20
556.844147665
 10
70.7680783186
 20
553.5215165443
 10
69.4660372053
 20
550.1254674024
 10
68.5060149942
 20
546.6729428596
 10
67.8928024087
 20
543.1811239547
 10
67.629454187
 20
539.667415244
 10
67.7172741805
 20
536.1493404931
 10
68.1558302556
 20
532.6444085664
 10
68.9429393921
 20
529.1700836248
 10
70.0746676836
 20
525.7436510152
 10
71.5453973923
 20
522.3822172708
 10
73.3477896963
 20
519.1025014943
 10
75.4728591953
 20
515.9208651609
 10
77.9100335155
 20
512.8531631059
 10
80.6471570347
 20
509.9146541185
 10
83.6706063662
 20
507.1199711389
 10
86.9653089855
 20
504.4830914563
 10
90.5148512636
 20
502.0170982904
 10
94.3015566979
 20
499.7342701978
 10
98.3065529678
 20
497.6460512704
 10
102.5098911438
 20
495.7627531118
 10
106.8906313692
 20
494.0938230581
 10
111.4269453053
 20
492.6475461549
 10
116.0962353412
 20
491.4311643667
 10
120.8752389018
 20
490.4506977624
 10
125.7401476566
 20
489.7110339231
 10
130.6667239357
 20
489.2158683366
 10
135.6304250609
 20
488.9676447934
 10
140.606521624
 20
488.9676447934
 10
145.5702227492
 20
489.2158683366
 10
150.4967990283
 20
489.7110339231
 10
155.3617077831
 20
490.4506977624
 10
160.1407113437
 20
491.4311643667
 10
164.8100013797
 20
492.6475461549
 10
169.3463153158
 20
494.0938230581
 10
173.7270555411
 20
495.7627531118
 10
177.9303937171
 20
497.6460512704
 10
181.935389987
 20
499.7342701978
 10
185.7220954214
 20
502.0170982904
 10
189.2716376994
 20
504.4830914563
 10
192.5663403187
 20
507.1199711389
 10
195.5897896502
 20
509.9146541185
 10
198.3269131694
 20
512.8531631059
 10
200.7640874897
 20
515.9208651609
 10
202.8891569887
 20
519.1025014943
 10
204.6915492926
 20
522.3822172708
 10
206.1622790013
 20
525.7436510152
 10
207.2940072928
 20
529.1700836248
 10
208.0811164294
 20
532.6444085664
 10
208.5196725045
 20
536.1493404931
 10
208.607492498
 20
539.667415244
 10
208.3441442762
 20
543.1811239547
 10
207.7309316907
 20
546.6729428596
 10
206.7709094797
 20
550.1254674024
 10
205.4688683663
 20
553.5215165443
 10
203.8312903557
 20
556.844147665
 10
201.8663338337
 20
560.0768353767
 10
199.5837888632
 20
563.203456623
 10
196.9950287555
 20
566.2084396905
 10
194.1129467402
 20
569.0768089122
 10
190.9519038115
 20
571.7942889756
 10
187.5276467715
 20
574.3473198242
 10
183.8572337244
 20
576.7232056684
 10
179.9589558456
 20
578.9101000852
 10
175.8522293482
 20
580.8970954246
 10
171.5575172518
 20
582.6743122167
 10
167.0962101732
 20
584.2328842706
 10
162.4905387823
 20
585.5650480813
 10
157.7634471421
 20
586.6641726321
 10
152.9384856064
 20
587.5247742957
 10
148.039691611
 20
588.1425615377
 10
143.0914699983
 20
588.5144796199
 10
138.1184733425
 20
588.6386658973
  0
INSERT
  5
9F
330
1F
100
AcDbEntity
  8
FORMAT
100
AcDbBlockReference
  2
SW_CENTERMARKSYMBOL_0
 10
138.1184733425
 20
790.5176456994
 30
0.0
  0
LINE
  5
A0
330
1F
100
AcDbEntity
  8
0
  6
Continuous
 62
     7
370
    25
100
AcDbLine
 10
58.1184751306
 20
-475.7173479944
 30
0.0
 11
58.1184751306
 21
-727.447372809
 31
0.0
  0
LINE
  5
A1
330
1F
100
AcDbEntity
  8
0
  6
Continuous
 62
     7
370
    25
100
AcDbLine
 10
218.1184715543
 20
-727.447372809
 30
0.0
 11
218.1184715543
 21
-475.7173479944
 31
0.0
  0
CIRCLE
  5
A2
330
1F
100
AcDbEntity
  8
0
  6
Continuous
 62
     7
370
    25
100
AcDbCircle
 10
138.1184733425
 20
-727.447372809
 30
0.0
 40
70.50000000000001
  0
CIRCLE
  5
A3
330
1F
100
AcDbEntity
  8
0
  6
Continuous
 62
     7
370
    25
100
AcDbCircle
 10
138.1184733425
 20
-727.447372809
 30
0.0
 40
79.99999999999999
  0
LWPOLYLINE
  5
A4
330
1F
100
AcDbEntity
  8
0
  6
Continuous
 62
     7
370
    25
100
AcDbPolyline
 90
       49
 70
   128
 43
0.0
 10
58.1184751306
 20
-475.7173479944
 10
58.1631488119
 20
-473.827135697
 10
58.5202476893
 20
-470.0550855547
 10
59.2328510199
 20
-466.3083375841
 10
60.2977774058
 20
-462.6036406904
 10
61.7102733765
 20
-458.9574755579
 10
63.4640208397
 20
-455.3861738592
 10
65.5511966858
 20
-451.9056798368
 10
67.9624802385
 20
-448.5315503031
 10
70.6870905076
 20
-445.2788354307
 10
73.7128681455
 20
-442.1620489508
 10
77.0262977992
 20
-439.1951383501
 10
80.6125788901
 20
-436.3913358599
 10
84.4556963954
 20
-433.7631882578
 10
88.5384804521
 20
-431.3224078566
 10
92.84270694
 20
-429.0799023062
 10
97.3491421853
 20
-427.045685187
 10
102.0376621697
 20
-425.2288760096
 10
106.887330762
 20
-423.6375512033
 10
111.8764853988
 20
-422.278803721
 10
116.9828413938
 20
-421.1587430387
 10
122.1835943822
 20
-420.2823461443
 10
127.4555171792
 20
-419.6535469442
 10
132.7750626903
 20
-419.2751468569
 10
138.1184733425
 20
-419.1488148123
 10
143.4618839946
 20
-419.2751468569
 10
148.7814295058
 20
-419.6535469442
 10
154.0533523027
 20
-420.2823461443
 10
159.2541052912
 20
-421.1587430387
 10
164.3604612861
 20
-422.278803721
 10
169.349615923
 20
-423.6375512033
 10
174.1992845152
 20
-425.2288760096
 10
178.8878044997
 20
-427.045685187
 10
183.3942397449
 20
-429.0799023062
 10
187.6984662328
 20
-431.3224078566
 10
191.7812502895
 20
-433.7631882578
 10
195.6243677948
 20
-436.3913358599
 10
199.2106488858
 20
-439.1951383501
 10
202.5240785394
 20
-442.1620489508
 10
205.5498561774
 20
-445.2788354307
 10
208.2744664464
 20
-448.5315503031
 10
210.6857499991
 20
-451.9056798368
 10
212.7729258452
 20
-455.3861738592
 10
214.5266733084
 20
-458.9574755579
 10
215.9391692791
 20
-462.6036406904
 10
217.004095665
 20
-466.3083375841
 10
217.7166989956
 20
-470.0550855547
 10
218.0737978731
 20
-473.827135697
 10
218.1184715543
 20
-475.7173479944
  0
INSERT
  5
B0
330
1F
100
AcDbEntity
  8
FORMAT
100
AcDbBlockReference
  2
SW_CENTERMARKSYMBOL_1
 10
138.1184733425
 20
-727.447372809
 30
0.0
  0
LINE
  5
B1
330
1F
100
AcDbEntity
  8
0
  6
Continuous
 62
     7
370
    25
100
AcDbLine
 10
768.3745421955
 20
310.5612444674
 30
0.0
 11
653.2130636761
 21
195.399765948
 31
0.0
  0
LINE
  5
B2
330
1F
100
AcDbEntity
  8
0
  6
Continuous
 62
     7
370
    25
100
AcDbLine
 10
653.2130636761
 20
-30.8744114841
 30
0.0
 11
881.511623461
 21
197.4241483008
 31
0.0
  0
LINE
  5
B3
330
1F
100
AcDbEntity
  8
0
  6
Continuous
 62
     7
370
    25
100
AcDbLine
 10
653.2130636761
 20
195.399765948
 30
0.0
 11
653.2130636761
 21
358.2626926696
 31
0.0
  0
LINE
  5
B4
330
1F
100
AcDbEntity
  8
0
  6
Continuous
 62
     7
370
    25
100
AcDbLine
 10
653.2130636761
 20
-172.7373254503
 30
0.0
 11
653.2130636761
 21
-30.8744114841
 31
0.0
  0
LINE
  5
B5
330
1F
100
AcDbEntity
  8
0
  6
Continuous
 62
     7
370
    25
100
AcDbLine
 10
493.2130672524
 20
358.2626926696
 30
0.0
 11
493.2130672524
 21
-172.7373254503
 31
0.0
  0
LWPOLYLINE
  5
B6
330
1F
100
AcDbEntity
  8
0
  6
Continuous
 62
     7
370
    25
100
AcDbPolyline
 90
       26
 70
   128
 43
0.0
 10
653.2130636761
 20
-30.8744114841
 10
653.1719662735
 20
-30.8573794568
 10
652.8433956692
 20
-30.7212871517
 10
652.1876104662
 20
-30.4496538843
 10
651.2073003242
 20
-30.0435972417
 10
649.9064960072
 20
-29.5047861541
 10
648.2905395815
 20
-28.8354259933
 10
646.3660769651
 20
-28.0382883752
 10
644.1410132239
 20
-27.1166366542
 10
641.6244902203
 20
-26.0742706264
 10
638.8268493602
 20
-24.9154371227
 10
635.7595868895
 20
-23.644934317
 10
632.4353054652
 20
-22.2679776157
 10
628.8676694522
 20
-20.7902145589
 10
625.0713378677
 20
-19.2177248205
 10
621.0619085023
 20
-17.5569606031
 10
616.855858315
 20
-15.8147615398
 10
612.4704689274
 20
-13.9982801879
 10
607.923763294
 20
-12.1149671281
 10
603.2344256083
 20
-10.1725858653
 10
598.4217230717
 20
-8.1790936197
 10
593.5054313878
 20
-6.1427009309
 10
588.5057555998
 20
-4.0717673505
 10
583.4432388211
 20
-1.9748014415
 10
578.3386830727
 20
0.1395690238
 10
573.2130654642
 20
2.2626715695
  0
LWPOLYLINE
  5
B7
330
1F
100
AcDbEntity
  8
0
  6
Continuous
 62
     7
370
    25
100
AcDbPolyline
 90
       39
 70
   128
 43
0.0
 10
573.2130654642
 20
2.2626715695
 10
576.5190633966
 20
10.2440613305
 10
579.8194133232
 20
18.2118016278
 10
583.108475853
 20
26.1523026024
 10
586.3806330154
 20
34.0519892966
 10
589.6302931497
 20
41.8973612582
 10
592.8519037107
 20
49.6750223433
 10
596.0399643073
 20
57.3716807162
 10
599.1890229771
 20
64.9741786515
 10
602.2937022636
 20
72.4695372378
 10
605.3487010786
 20
79.8449563777
 10
608.34879284
 20
87.0878147875
 10
611.2888552735
 20
94.185774306
 10
614.1638704131
 20
101.1266755854
 10
616.9689171502
 20
107.8986573016
 10
619.6992122123
 20
114.4901561534
 10
622.3500840852
 20
120.8899366652
 10
624.9170028159
 20
127.0870315825
 10
627.3955911884
 20
133.0708610808
 10
629.781606097
 20
138.8312029635
 10
632.0709795246
 20
144.3582522666
 10
634.2597924659
 20
149.6425020491
 10
636.3443084547
 20
154.6749818122
 10
638.3209623883
 20
159.4470488822
 10
640.1863866041
 20
163.9505672251
 10
641.937384803
 20
168.1778478419
 10
643.5709618518
 20
172.1216785704
 10
645.0843461344
 20
175.7752942835
 10
646.4749299476
 20
179.1324662959
 10
647.7403514573
 20
182.1874725615
 10
648.8784425447
 20
184.9350678717
 10
649.8872660587
 20
187.3705732619
 10
650.765086014
 20
189.4898164069
 10
651.5104122946
 20
191.2891912257
 10
652.1219708512
 20
192.7656280791
 10
652.5987111518
 20
193.9165639674
 10
652.9398285339
 20
194.7400915419
 10
653.1447269509
 20
195.2347802912
 10
653.2130636761
 20
195.399765948
  0
LWPOLYLINE
  5
B8
330
1F
100
AcDbEntity
  8
0
  6
Continuous
 62
     7
370
    25
100
AcDbPolyline
 90
       48
 70
   128
 43
0.0
 10
768.3745421955
 20
310.5612444674
 10
768.500859339
 20
310.4349124228
 10
768.8792743275
 20
310.0565123355
 10
769.5080735276
 20
309.4276833331
 10
770.384470422
 20
308.5513162409
 10
771.5045311043
 20
307.4312555586
 10
772.8632636855
 20
306.0725080763
 10
774.4545884917
 20
304.4811832701
 10
776.2714125702
 20
302.6643442904
 10
778.3056147883
 20
300.6301569735
 10
780.5481203387
 20
298.3876514231
 10
782.9889007399
 20
295.9468710219
 10
785.6170632431
 20
293.3187234198
 10
788.4208508322
 20
290.5149209296
 10
791.3877614329
 20
287.5480103289
 10
794.5045479128
 20
284.431223849
 10
797.7572627852
 20
281.1785089766
 10
801.1314072201
 20
277.8043496405
 10
804.6119012425
 20
274.3238556182
 10
808.1832029412
 20
270.7525539195
 10
811.8293531725
 20
267.1064185893
 10
815.5340649674
 20
263.4016918933
 10
819.280812938
 20
259.6549439227
 10
823.0528481791
 20
255.8829235827
 10
826.8333025763
 20
252.1024393832
 10
830.6053527186
 20
248.3304190432
 10
834.3521006892
 20
244.5836710726
 10
838.0567975829
 20
240.8789741789
 10
841.7029627154
 20
237.2328090464
 10
845.2742644141
 20
233.6615073477
 10
848.7547584364
 20
230.1810133254
 10
852.1288879702
 20
226.8068837916
 10
855.3816028426
 20
223.5541689192
 10
858.4983893225
 20
220.4373824393
 10
861.4652999232
 20
217.4704718386
 10
864.2691024134
 20
214.6666693484
 10
866.8972500155
 20
212.0385217463
 10
869.3380304167
 20
209.5977413451
 10
871.5805359671
 20
207.3552357947
 10
873.6147530863
 20
205.3210186755
 10
875.4315622637
 20
203.5042094981
 10
877.0228870699
 20
201.9128548896
 10
878.3816345522
 20
200.5541372096
 10
879.5016952345
 20
199.4340765273
 10
880.378092129
 20
198.5576796328
 10
881.006891329
 20
197.9288804328
 10
881.3852914164
 20
197.5504803454
 10
881.511623461
 20
197.4241483008
  0
LINE
  5
B9
330
1F
100
AcDbEntity
  8
0
  6
Continuous
 62
     7
370
    25
100
AcDbLine
 10
573.2130654642
 20
-172.7373254503
 30
0.0
 11
653.2130636761
 21
-172.7373254503
 31
0.0
  0
LINE
  5
BA
330
1F
100
AcDbEntity
  8
0
  6
Continuous
 62
     7
370
    25
100
AcDbLine
 10
493.2130672524
 20
-172.7373254503
 30
0.0
 11
573.2130654642
 21
-172.7373254503
 31
0.0
  0
LINE
  5
BB
330
1F
100
AcDbEntity
  8
0
  6
Continuous
 62
     7
370
    25
100
AcDbLine
 10
573.2130654642
 20
358.2626926696
 30
0.0
 11
653.2130636761
 21
358.2626926696
 31
0.0
  0
LINE
  5
BC
330
1F
100
AcDbEntity
  8
0
  6
Continuous
 62
     7
370
    25
100
AcDbLine
 10
493.2130672524
 20
358.2626926696
 30
0.0
 11
573.2130654642
 21
358.2626926696
 31
0.0
  0
LINE
  5
BD
330
1F
100
AcDbEntity
  8
0
  6
Continuous
 62
     7
370
    25
100
AcDbLine
 10
-196.2277453021
 20
-172.7373254503
 30
0.0
 11
-196.2277453021
 21
358.2626926696
 31
0.0
  0
LINE
  5
BE
330
1F
100
AcDbEntity
  8
0
  6
Continuous
 62
     7
370
    25
100
AcDbLine
 10
-356.2277417258
 20
-30.8744114841
 30
0.0
 11
-356.2277417258
 21
-172.7373254503
 31
0.0
  0
LINE
  5
BF
330
1F
100
AcDbEntity
  8
0
  6
Continuous
 62
     7
370
    25
100
AcDbLine
 10
-356.2277417258
 20
358.2626926696
 30
0.0
 11
-356.2277417258
 21
195.399765948
 31
0.0
  0
LINE
  5
C0
330
1F
100
AcDbEntity
  8
0
  6
Continuous
 62
     7
370
    25
100
AcDbLine
 10
-584.5263015107
 20
197.4241483008
 30
0.0
 11
-356.2277417258
 21
-30.8744114841
 31
0.0
  0
LINE
  5
C1
330
1F
100
AcDbEntity
  8
0
  6
Continuous
 62
     7
370
    25
100
AcDbLine
 10
-356.2277417258
 20
195.399765948
 30
0.0
 11
-471.3892202453
 21
310.5612444674
 31
0.0
  0
LINE
  5
C2
330
1F
100
AcDbEntity
  8
0
  6
Continuous
 62
     7
370
    25
100
AcDbLine
 10
-356.2277417258
 20
-172.7373254503
 30
0.0
 11
-196.2277453021
 21
-172.7373254503
 31
0.0
  0
LINE
  5
C3
330
1F
100
AcDbEntity
  8
0
  6
Continuous
 62
     7
370
    25
100
AcDbLine
 10
-356.2277417258
 20
358.2626926696
 30
0.0
 11
-196.2277453021
 21
358.2626926696
 31
0.0
  0
LWPOLYLINE
  5
C4
330
1F
100
AcDbEntity
  8
0
  6
Continuous
 62
     7
370
    25
100
AcDbPolyline
 90
       39
 70
   128
 43
0.0
 10
-356.2277417258
 20
195.399765948
 10
-356.1594050006
 20
195.2347802912
 10
-355.9545065836
 20
194.7400915419
 10
-355.6133892015
 20
193.9165639674
 10
-355.1366489009
 20
192.7656280791
 10
-354.5250903443
 20
191.2891912257
 10
-353.7797640637
 20
189.4898164069
 10
-352.9019441084
 20
187.3705732619
 10
-351.8931205944
 20
184.9350678717
 10
-350.7550295071
 20
182.1874725615
 10
-349.4896079973
 20
179.1324662959
 10
-348.0990241841
 20
175.7752942835
 10
-346.5856399015
 20
172.1216785704
 10
-344.9520628528
 20
168.1778478419
 10
-343.2010646538
 20
163.9505672251
 10
-341.335640438
 20
159.4470488822
 10
-339.3589865045
 20
154.6749818122
 10
-337.2744705156
 20
149.6425020491
 10
-335.0856575743
 20
144.3582522666
 10
-332.7962841467
 20
138.8312029635
 10
-330.4102692381
 20
133.0708610808
 10
-327.9316808657
 20
127.0870315825
 10
-325.3647621349
 20
120.8899366652
 10
-322.713890262
 20
114.4901561534
 10
-319.9835952
 20
107.8986573016
 10
-317.1785484628
 20
101.1266755854
 10
-314.3035333232
 20
94.185774306
 10
-311.3634708897
 20
87.0878147875
 10
-308.3633791284
 20
79.8449563777
 10
-305.3083803133
 20
72.4695372378
 10
-302.2037010268
 20
64.9741786515
 10
-299.054642357
 20
57.3716807162
 10
-295.8665817604
 20
49.6750223433
 10
-292.6449711994
 20
41.8973612582
 10
-289.3953110651
 20
34.0519892966
 10
-286.1231539027
 20
26.1523026024
 10
-282.8340913729
 20
18.2118016278
 10
-279.5337414463
 20
10.2440613305
 10
-276.227743514
 20
2.2626715695
  0
LWPOLYLINE
  5
C5
330
1F
100
AcDbEntity
  8
0
  6
Continuous
 62
     7
370
    25
100
AcDbPolyline
 90
       26
 70
   128
 43
0.0
 10
-276.227743514
 20
2.2626715695
 10
-281.3533611224
 20
0.1395690238
 10
-286.4579168708
 20
-1.9748014415
 10
-291.5204336495
 20
-4.0717673505
 10
-296.5201094375
 20
-6.1427009309
 10
-301.4364011214
 20
-8.1790936197
 10
-306.249103658
 20
-10.1725858653
 10
-310.9384413437
 20
-12.1149671281
 10
-315.4851469771
 20
-13.9982801879
 10
-319.8705363647
 20
-15.8147615398
 10
-324.076586552
 20
-17.5569606031
 10
-328.0860159174
 20
-19.2177248205
 10
-331.8823475019
 20
-20.7902145589
 10
-335.4499835149
 20
-22.2679776157
 10
-338.7742649392
 20
-23.644934317
 10
-341.8415274099
 20
-24.9154371227
 10
-344.63916827
 20
-26.0742706264
 10
-347.1556912736
 20
-27.1166366542
 10
-349.3807550148
 20
-28.0382883752
 10
-351.3052176312
 20
-28.8354259933
 10
-352.9211740569
 20
-29.5047861541
 10
-354.2219783739
 20
-30.0435972417
 10
-355.2022885159
 20
-30.4496538843
 10
-355.8580737189
 20
-30.7212871517
 10
-356.1866443233
 20
-30.8573794568
 10
-356.2277417258
 20
-30.8744114841
  0
LWPOLYLINE
  5
C6
330
1F
100
AcDbEntity
  8
0
  6
Continuous
 62
     7
370
    25
100
AcDbPolyline
 90
       48
 70
   128
 43
0.0
 10
-584.5263015107
 20
197.4241483008
 10
-584.3999694661
 20
197.5504803454
 10
-584.0215693788
 20
197.9288804328
 10
-583.3927701787
 20
198.5576796328
 10
-582.5163732842
 20
199.4340765273
 10
-581.3963126019
 20
200.5541372096
 10
-580.0375651196
 20
201.9128548896
 10
-578.4462403134
 20
203.5042094981
 10
-576.629431136
 20
205.3210186755
 10
-574.5952140168
 20
207.3552357947
 10
-572.3527084664
 20
209.5977413451
 10
-569.9119280652
 20
212.0385217463
 10
-567.2837804631
 20
214.6666693484
 10
-564.4799779729
 20
217.4704718386
 10
-561.5130673722
 20
220.4373824393
 10
-558.3962808923
 20
223.5541689192
 10
-555.1435660199
 20
226.8068837916
 10
-551.7694364861
 20
230.1810133254
 10
-548.2889424638
 20
233.6615073477
 10
-544.7176407651
 20
237.2328090464
 10
-541.0714756326
 20
240.8789741789
 10
-537.3667787389
 20
244.5836710726
 10
-533.6200307683
 20
248.3304190432
 10
-529.847980626
 20
252.1024393832
 10
-526.0675262288
 20
255.8829235827
 10
-522.2954909877
 20
259.6549439227
 10
-518.5487430171
 20
263.4016918933
 10
-514.8440312222
 20
267.1064185893
 10
-511.1978809909
 20
270.7525539195
 10
-507.6265792922
 20
274.3238556182
 10
-504.1460852698
 20
277.8043496405
 10
-500.7719408349
 20
281.1785089766
 10
-497.5192259625
 20
284.431223849
 10
-494.4024394826
 20
287.5480103289
 10
-491.4355288819
 20
290.5149209296
 10
-488.6317412929
 20
293.3187234198
 10
-486.0035787896
 20
295.9468710219
 10
-483.5627983884
 20
298.3876514231
 10
-481.320292838
 20
300.6301569735
 10
-479.2860906199
 20
302.6643442904
 10
-477.4692665414
 20
304.4811832701
 10
-475.8779417352
 20
306.0725080763
 10
-474.519209154
 20
307.4312555586
 10
-473.3991484717
 20
308.5513162409
 10
-472.5227515773
 20
309.4276833331
 10
-471.8939523772
 20
310.0565123355
 10
-471.5155373887
 20
310.4349124228
 10
-471.3892202453
 20
310.5612444674
  0
LINE
  5
C7
330
1F
100
AcDbEntity
  8
0
  6
Continuous
 62
     7
370
    25
100
AcDbLine
 10
426.671539141
 20
-428.1118075581
 30
0.0
 11
593.953568895
 21
-717.8527966442
 31
0.0
  0
LINE
  5
C8
330
1F
100
AcDbEntity
  8
0
  6
Continuous
 62
     7
370
    25
100
AcDbLine
 10
687.4787085854
 20
-559.8430914973
 30
0.0
 11
565.2356045744
 21
-348.1118068456
 31
0.0
  0
LINE
  5
C9
330
1F
100
AcDbEntity
  8
0
  6
Continuous
 62
     7
370
    25
100
AcDbLine
 10
753.9535662621
 20
-839.3114967278
 30
0.0
 11
753.9535662621
 21
-405.7283108209
 31
0.0
  0
LINE
  5
CA
330
1F
100
AcDbEntity
  8
0
  6
Continuous
 62
     7
370
    25
100
AcDbLine
 10
593.9535715292
 20
-715.5495923929
 30
0.0
 11
593.9535715292
 21
-839.3114967278
 31
0.0
  0
ELLIPSE
  5
CB
330
1F
100
AcDbEntity
  8
0
  6
Continuous
 62
     7
370
    25
100
AcDbEllipse
 10
673.9535688957
 20
-696.4168546478
 30
0.0
 11
79.71158082497404
 21
21.35865376374705
 31
0.0
210
0.0
220
0.0
230
1.0
 40
0.3177652438
 41
0.700458089638245
 42
3.056652579830586
  0
ELLIPSE
  5
CC
330
1F
100
AcDbEntity
  8
0
  6
Continuous
 62
     7
370
    25
100
AcDbEllipse
 10
673.9535688957
 20
-696.4168546478
 30
0.0
 11
-51.56543887304304
 21
192.4448372996488
 31
0.0
210
0.0
220
0.0
230
1.0
 40
0.3178248929
 41
4.797329054143883
 42
5.412847070022955
  0
LWPOLYLINE
  5
CD
330
1F
100
AcDbEntity
  8
0
  6
Continuous
 62
     7
370
    25
100
AcDbPolyline
 90
       95
 70
   128
 43
0.0
 10
535.9535652726
 20
-365.0127837046
 10
532.0858836571
 20
-367.2455777052
 10
528.0568171488
 20
-369.5715463399
 10
523.8843766109
 20
-371.9803527684
 10
519.5871827184
 20
-374.4611619621
 10
515.1844412634
 20
-377.0029591356
 10
510.6958071653
 20
-379.5943849158
 10
506.1413370557
 20
-382.223835714
 10
501.5413641548
 20
-384.8795968057
 10
496.9164350512
 20
-387.5497693179
 10
492.2871964323
 20
-390.2224694695
 10
487.6743397666
 20
-392.8857388319
 10
483.0984537896
 20
-395.5276781683
 10
478.5799928937
 20
-398.1365143512
 10
474.1391217118
 20
-400.7005684247
 10
469.7956729701
 20
-403.2084016091
 10
465.5690658292
 20
-405.6488016108
 10
461.4781504672
 20
-408.0108966971
 10
457.5412133478
 20
-410.2841039812
 10
453.7758349752
 20
-412.458284559
 10
450.1988319421
 20
-414.523716133
 10
446.8261884407
 20
-416.4712055665
 10
443.6729508959
 20
-418.2920280481
 10
440.7532121603
 20
-419.9780457246
 10
438.08002722
 20
-421.5217685441
 10
435.6652920232
 20
-422.9162417176
 10
433.5198277732
 20
-424.1552890596
 10
431.6532281464
 20
-425.233345701
 10
430.0737855351
 20
-426.1456223588
 10
428.7885806101
 20
-426.8880292815
 10
427.8033558793
 20
-427.457249274
 10
427.1225209568
 20
-427.8507346559
 10
426.7490946106
 20
-428.0667407324
 10
426.6847416413
 20
-428.1043045086
 10
426.9297676135
 20
-427.9632477349
 10
427.4830635382
 20
-427.6442088612
 10
428.3421769957
 20
-427.1486019743
 10
429.5032489152
 20
-426.478653314
 10
430.961105771
 20
-425.6373480458
 10
432.7092279725
 20
-424.6284485204
 10
434.7398341578
 20
-423.4564456122
 10
437.0438311443
 20
-422.1266119669
 10
439.6109166618
 20
-420.6448210129
 10
442.4296531092
 20
-419.0177477303
 10
445.4874346275
 20
-417.2526443315
 10
448.7706188088
 20
-415.3573858888
 10
452.2645362448
 20
-413.3404404997
 10
455.9535679061
 20
-411.2108246164
 10
459.8212600583
 20
-408.9780366985
 10
463.8503160299
 20
-406.6520619811
 10
468.0227565679
 20
-404.2432798874
 10
472.3199504604
 20
-401.7624463589
 10
476.7226919153
 20
-399.2206491853
 10
481.2113365501
 20
-396.6292538227
 10
485.7658066597
 20
-393.9997786897
 10
490.3657690239
 20
-391.34403585
 10
494.9907086642
 20
-388.6738450858
 10
499.6199472831
 20
-386.0011449342
 10
504.2328039488
 20
-383.3378755718
 10
508.8086793891
 20
-380.6959301527
 10
513.3271508217
 20
-378.0871000525
 10
517.7680220037
 20
-375.5230459789
 10
522.1114707453
 20
-373.0152127946
 10
526.3380778862
 20
-370.5748127929
 10
530.4289827116
 20
-368.2127359587
 10
534.365919831
 20
-365.9395286746
 10
538.1312982035
 20
-363.7653480968
 10
541.7083117733
 20
-361.6998982706
 10
545.080944738
 20
-359.7524270892
 10
548.2341822828
 20
-357.9316046077
 10
551.1539315552
 20
-356.2455930139
 10
553.8271164954
 20
-354.7018701944
 10
556.2418411555
 20
-353.3073909382
 10
558.3873054055
 20
-352.0683435962
 10
560.2539155691
 20
-350.9902687026
 10
561.8333476436
 20
-350.078010297
 10
563.1185525687
 20
-349.3356033743
 10
564.1037772994
 20
-348.7663833818
 10
564.7846227586
 20
-348.3728797478
 10
565.1580491048
 20
-348.1568736713
 10
565.2224020741
 20
-348.1193098951
 10
564.977376102
 20
-348.2603666687
 10
564.4240696405
 20
-348.5793994597
 10
563.5649667197
 20
-349.0750124294
 10
562.4038948002
 20
-349.7449610897
 10
560.9460379444
 20
-350.5862663579
 10
559.1979052062
 20
-351.5951841354
 10
557.1673095576
 20
-352.7671687915
 10
554.8633125711
 20
-354.0970267716
 10
552.2962165169
 20
-355.5787873081
 10
549.4774800696
 20
-357.2058605906
 10
546.4196985512
 20
-358.9709883243
 10
543.13651437
 20
-360.8662224321
 10
539.6426074707
 20
-362.883173904
 10
535.9535652726
 20
-365.0127837046
  0
LWPOLYLINE
  5
CE
330
1F
100
AcDbEntity
  8
0
  6
Continuous
 62
     7
370
    25
100
AcDbPolyline
 90
       90
 70
   128
 43
0.0
 10
531.2035732986
 20
-367.7558114516
 10
527.5993206815
 20
-369.8365186782
 10
523.8374138264
 20
-372.0082584659
 10
519.9366018245
 20
-374.2602434495
 10
515.9163015314
 20
-376.5812276095
 10
511.7965445541
 20
-378.9596463758
 10
507.5978610175
 20
-381.3836715666
 10
503.3411636609
 20
-383.8412174672
 10
499.047661569
 20
-386.3200514709
 10
494.7387495355
 20
-388.8077849473
 10
490.4358829406
 20
-391.2920671603
 10
486.1605039935
 20
-393.7604940038
 10
481.9339231944
 20
-396.200798118
 10
477.7771797233
 20
-398.6007834885
 10
473.7109966588
 20
-400.9485338069
 10
469.7556229273
 20
-403.2323333877
 10
465.9307648148
 20
-405.4407918793
 10
462.255475331
 20
-407.5629203146
 10
458.7480778182
 20
-409.5881387135
 10
455.42602634
 20
-411.5063566992
 10
452.3058846081
 20
-413.3080464987
 10
449.4031890043
 20
-414.9842003673
 10
446.7324064344
 20
-416.5264644285
 10
444.3068500343
 20
-417.927175182
 10
442.1385948759
 20
-419.1793473463
 10
440.2384463576
 20
-420.2767651149
 10
438.6158453735
 20
-421.2139030777
 10
437.2789157286
 20
-421.9861421961
 10
436.2342902832
 20
-422.5896268479
 10
435.4871847098
 20
-423.0213439185
 10
435.0413342728
 20
-423.2791349814
 10
434.8989332426
 20
-423.3617312867
 10
435.0606954814
 20
-423.2687187886
 10
435.5258465408
 20
-423.0005427118
 10
436.2920314657
 20
-422.5585608069
 10
437.3554333321
 20
-421.9449749078
 10
438.710799589
 20
-421.1628157291
 10
440.3513156179
 20
-420.2160158979
 10
442.2688549796
 20
-419.1092654542
 10
444.4538411197
 20
-417.8480917254
 10
446.8954159565
 20
-416.438761988
 10
449.5813871969
 20
-414.8883382387
 10
452.4983758507
 20
-413.2044703511
 10
455.6318564016
 20
-411.3956162415
 10
458.9662025765
 20
-409.4707721062
 10
462.4848342
 20
-407.4395093066
 10
466.1702214761
 20
-405.3119475786
 10
470.0039719151
 20
-403.0987048504
 10
473.9670032021
 20
-400.8108217672
 10
478.0395636116
 20
-398.4596282433
 10
482.2013620704
 20
-396.0569117189
 10
486.4316926219
 20
-393.6146019524
 10
490.7094555001
 20
-391.1448805405
 10
495.013357327
 20
-388.660040988
 10
499.3219111122
 20
-386.1724887242
 10
503.6137194277
 20
-383.6945775896
 10
507.8673453327
 20
-381.2386843854
 10
512.0616074015
 20
-378.8170385177
 10
516.1756482125
 20
-376.4416824559
 10
520.1889264454
 20
-374.1244763065
 10
524.0814618599
 20
-371.8769563586
 10
527.8338695398
 20
-369.7103153109
 10
531.4274626262
 20
-367.6353429614
 10
534.8443181717
 20
-365.6623881785
 10
538.0674246546
 20
-363.8012980582
 10
541.0807135889
 20
-362.0612780055
 10
543.8691806965
 20
-360.4510651041
 10
546.4189333225
 20
-358.9786573955
 10
548.7172852655
 20
-357.6513929588
 10
550.7527673143
 20
-356.4758708192
 10
552.5152326152
 20
-355.4579509404
 10
553.995919892
 20
-354.6027298815
 10
555.1874323729
 20
-353.9144434542
 10
556.0838536938
 20
-353.3965214629
 10
556.6807057523
 20
-353.0515512008
 10
556.9750198296
 20
-352.8812363716
 10
556.9653234203
 20
-352.8864411894
 10
556.6516771104
 20
-353.0671569076
 10
556.0356271624
 20
-353.4224440179
 10
555.1202581989
 20
-353.9505721598
 10
553.9101273477
 20
-354.6488756291
 10
552.4112510716
 20
-355.5139069783
 10
550.6311130703
 20
-356.5413107681
 10
548.5785694503
 20
-357.7260121558
 10
546.2638500421
 20
-359.0620944488
 10
543.6984899113
 20
-360.5429116429
 10
540.8952641627
 20
-362.1610652199
 10
537.868135257
 20
-363.9084953922
 10
534.6321999979
 20
-365.7765238683
 10
531.2035732986
 20
-367.7558114516
  0
LWPOLYLINE
  5
CF
330
1F
100
AcDbEntity
  8
0
  6
Continuous
 62
     7
370
    25
100
AcDbPolyline
 90
       95
 70
   128
 43
0.0
 10
617.3850276652
 20
-871.9678204708
 10
613.7329904001
 20
-869.7136929068
 10
610.3499139073
 20
-867.3237812886
 10
607.2509009173
 20
-864.8087628709
 10
604.4498042431
 20
-862.179864634
 10
601.9591283278
 20
-859.4488307785
 10
599.789993354
 20
-856.6278594281
 10
597.9520930968
 20
-853.7295478843
 10
596.4536330208
 20
-850.7668447254
 10
595.3013092066
 20
-847.7529768141
 10
594.5002635696
 20
-844.7014051973
 10
594.0540759579
 20
-841.6257658002
 10
593.9647378099
 20
-838.5397873092
 10
594.2326495208
 20
-835.4572561966
 10
594.8566151738
 20
-832.3919376452
 10
595.8338451742
 20
-829.3575253658
 10
597.1599799576
 20
-826.3675701256
 10
598.829089989
 20
-823.4354219621
 10
600.8337258131
 20
-820.5741830421
 10
603.1649351758
 20
-817.7966308676
 10
605.8122985858
 20
-815.1151673332
 10
608.7640010963
 20
-812.5417712042
 10
612.0068566704
 20
-810.0879353896
 10
615.5263801279
 20
-807.7646193249
 10
619.3068533284
 20
-805.5821986004
 10
623.3313908614
 20
-803.550420956
 10
627.5820197303
 20
-801.678360281
 10
632.0397555786
 20
-799.974378692
 10
636.6846899472
 20
-798.4460883259
 10
641.4960727574
 20
-797.1003098066
 10
646.4524209701
 20
-795.9430581781
 10
651.5316009044
 20
-794.9795014669
 10
656.7109164824
 20
-794.2139401519
 10
661.9672422552
 20
-793.6497972807
 10
667.2771050623
 20
-793.2895895765
 10
672.6167841306
 20
-793.1349274379
 10
677.9624348804
 20
-793.1865012529
 10
683.2901758538
 20
-793.4440798785
 10
688.5762256915
 20
-793.9065136815
 10
693.7969637191
 20
-794.5717360598
 10
698.9290721926
 20
-795.4367786487
 10
703.9496390316
 20
-796.4977758833
 10
708.83623421
 20
-797.7499908495
 10
713.567036197
 20
-799.1878274502
 10
718.1209149337
 20
-800.8048661406
 10
722.4775266629
 20
-802.5938882593
 10
726.6174235777
 20
-804.5468967476
 10
730.5221101262
 20
-806.6551729848
 10
734.1741473913
 20
-808.9093005488
 10
737.557223884
 20
-811.299212167
 10
740.656236874
 20
-813.8142305846
 10
743.4573335482
 20
-816.4431288216
 10
745.9480094635
 20
-819.174162677
 10
748.1171444373
 20
-821.9951340275
 10
749.9550446945
 20
-824.8934455713
 10
751.4535047705
 20
-827.8561487301
 10
752.6058285848
 20
-830.8700166415
 10
753.4068742217
 20
-833.9215882583
 10
753.8530618335
 20
-836.9972276554
 10
753.9423999814
 20
-840.0832061464
 10
753.6744882705
 20
-843.165737259
 10
753.0505226176
 20
-846.2310558104
 10
752.0732926171
 20
-849.2654680897
 10
750.7471578338
 20
-852.2554233299
 10
749.0780478023
 20
-855.1875714935
 10
747.0734119783
 20
-858.0488104135
 10
744.7422026156
 20
-860.8263625879
 10
742.0948392055
 20
-863.5078261224
 10
739.1431366951
 20
-866.0812222513
 10
735.9002811209
 20
-868.535058066
 10
732.3807576635
 20
-870.8583741306
 10
728.600284463
 20
-873.0407948551
 10
724.57574693
 20
-875.0725724995
 10
720.3251180611
 20
-876.9446331745
 10
715.8673822128
 20
-878.6486147636
 10
711.2224478441
 20
-880.1769051296
 10
706.411065034
 20
-881.522683649
 10
701.4547168213
 20
-882.6799352774
 10
696.375536887
 20
-883.6434919887
 10
691.1962213089
 20
-884.4090533037
 10
685.9398955361
 20
-884.9731961748
 10
680.630032729
 20
-885.333403879
 10
675.2903536608
 20
-885.4880660177
 10
669.9447029109
 20
-885.4364922026
 10
664.6169619375
 20
-885.1789135771
 10
659.3309120998
 20
-884.716479774
 10
654.1101740722
 20
-884.0512573957
 10
648.9780655987
 20
-883.1862148068
 10
643.9574987598
 20
-882.1252175723
 10
639.0709035814
 20
-880.8730026061
 10
634.3401015943
 20
-879.4351660054
 10
629.7862228577
 20
-877.818127315
 10
625.4296111284
 20
-876.0291051963
 10
621.2897142136
 20
-874.076096708
 10
617.3850276652
 20
-871.9678204708
  0
LWPOLYLINE
  5
D0
330
1F
100
AcDbEntity
  8
0
  6
Continuous
 62
     7
370
    25
100
AcDbPolyline
 90
       47
 70
   128
 43
0.0
 10
594.7492460772
 20
-399.2309286165
 10
594.8566151738
 20
-398.8087517383
 10
595.8338451742
 20
-395.7743394589
 10
597.1599799576
 20
-392.7843842187
 10
598.829089989
 20
-389.8522360552
 10
600.8337258131
 20
-386.9909971352
 10
603.1649351758
 20
-384.2134449607
 10
605.8122985858
 20
-381.5319814263
 10
608.7640010963
 20
-378.9585852973
 10
612.0068566704
 20
-376.5047494827
 10
615.5263801279
 20
-374.181433418
 10
619.3068533284
 20
-371.9990126935
 10
623.3313908614
 20
-369.9672350491
 10
627.5820197303
 20
-368.0951743741
 10
632.0397555786
 20
-366.3911927851
 10
636.6846899472
 20
-364.862902419
 10
641.4960727574
 20
-363.5171238997
 10
646.4524209701
 20
-362.3598722712
 10
651.5316009044
 20
-361.39631556
 10
656.7109164824
 20
-360.630754245
 10
661.9672422552
 20
-360.0666113738
 10
667.2771050623
 20
-359.7064036696
 10
672.6167841306
 20
-359.551741531
 10
677.9624348804
 20
-359.603315346
 10
683.2901758538
 20
-359.8608939716
 10
688.5762256915
 20
-360.3233277746
 10
693.7969637191
 20
-360.9885501529
 10
698.9290721926
 20
-361.8535927418
 10
703.9496390316
 20
-362.9145899764
 10
708.83623421
 20
-364.1668049426
 10
713.567036197
 20
-365.6046415433
 10
718.1209149337
 20
-367.2216802337
 10
722.4775266629
 20
-369.0107023524
 10
726.6174235777
 20
-370.9637108407
 10
730.5221101262
 20
-373.0719870779
 10
734.1741473913
 20
-375.3261146419
 10
737.557223884
 20
-377.7160262601
 10
740.656236874
 20
-380.2310446777
 10
743.4573335482
 20
-382.8599429147
 10
745.9480094635
 20
-385.5909767701
 10
748.1171444373
 20
-388.4119481206
 10
749.9550446945
 20
-391.3102596644
 10
751.4535047705
 20
-394.2729628232
 10
752.6058285848
 20
-397.2868307346
 10
753.4068742217
 20
-400.3384023514
 10
753.8530618335
 20
-403.4140417485
 10
753.9535662621
 20
-405.7283108209
  0
LWPOLYLINE
  5
D1
330
1F
100
AcDbEntity
  8
0
  6
Continuous
 62
     7
370
    25
100
AcDbPolyline
 90
       90
 70
   128
 43
0.0
 10
624.1025398948
 20
-868.0898832048
 10
620.7102806574
 20
-865.9881979689
 10
617.5832739282
 20
-863.7536122655
 10
614.7370972483
 20
-861.3972599333
 10
612.1859412639
 20
-858.9308731977
 10
609.9425040303
 20
-856.3667459851
 10
608.017969609
 20
-853.7176485741
 10
606.4219185052
 20
-850.9967819759
 10
605.1623125223
 20
-848.2176992384
 10
604.2454183696
 20
-845.3942461405
 10
603.6758063462
 20
-842.5404904799
 10
603.4563134617
 20
-839.6706460397
 10
603.5880355342
 20
-836.7990132814
 10
604.0703166533
 20
-833.9398972287
 10
604.9007491804
 20
-831.1075435989
 10
606.0752027243
 20
-828.3160612481
 10
607.5878215072
 20
-825.5793567821
 10
609.43107178
 20
-822.9110646054
 10
611.5957681638
 20
-820.324480011
 10
614.0711302851
 20
-817.8324869486
 10
616.8448203125
 20
-815.447499858
 10
619.9030256043
 20
-813.181403793
 10
623.2305105685
 20
-811.0454879865
 10
626.8106922313
 20
-809.0503900606
 10
630.6257380306
 20
-807.2060517368
 10
634.6566422073
 20
-805.521662571
 10
638.8833158612
 20
-804.0056079652
 10
643.2847138854
 20
-802.6654506343
 10
647.8389021379
 20
-801.5078614152
 10
652.5231871751
 20
-800.5386052005
 10
657.3142433505
 20
-799.7625162275
 10
662.1881918402
 20
-799.1834554992
 10
667.1207586936
 20
-798.8043138256
 10
672.0873643955
 20
-798.6269753275
 10
677.0632661118
 20
-798.6523235193
 10
682.023676227
 20
-798.8802367465
 10
686.9438808829
 20
-799.3095745003
 10
691.7993690529
 20
-799.9382002272
 10
696.5659537144
 20
-800.7629813293
 10
701.2198811668
 20
-801.7798096932
 10
705.7379680095
 20
-802.9836199387
 10
710.0977065081
 20
-804.3684137488
 10
714.2773778647
 20
-805.9272918047
 10
718.2561608778
 20
-807.6524861
 10
722.0142251258
 20
-809.5354076517
 10
725.5328567493
 20
-811.5666704514
 10
728.7945259523
 20
-813.7361547629
 10
731.7829739292
 20
-816.0330573054
 10
734.4833225132
 20
-818.4459302202
 10
736.8821156646
 20
-820.9627536834
 10
738.9674021175
 20
-823.5709896998
 10
740.7287913567
 20
-826.257644831
 10
742.1575089351
 20
-829.0093355847
 10
743.2464386208
 20
-831.8123492414
 10
743.9901540071
 20
-834.6527229302
 10
744.3849540738
 20
-837.5163067366
 10
744.4288631874
 20
-840.388833654
 10
744.1216706137
 20
-843.2559940965
 10
743.4649068101
 20
-846.10350433
 10
742.4618355231
 20
-848.9171749024
 10
741.1174643253
 20
-851.6829927604
 10
739.4384813946
 20
-854.3871729522
 10
737.433260783
 20
-857.016249869
 10
735.1117886594
 20
-859.5571228643
 10
732.4856205043
 20
-861.9971296277
 10
729.5678567436
 20
-864.3241210775
 10
726.3730228935
 20
-866.5265001385
 10
722.9170374566
 20
-868.5932950195
 10
719.2171218655
 20
-870.5142112015
 10
715.2917030188
 20
-872.2796755374
 10
711.1603365603
 20
-873.8808927074
 10
706.8436102377
 20
-875.3098888429
 10
702.3630288219
 20
-876.5595414657
 10
697.7409103863
 20
-877.6236271985
 10
693.0002855493
 20
-878.496843435
 10
688.1647723513
 20
-879.1748410343
 10
683.2584603503
 20
-879.6542395279
 10
678.3057894502
 20
-879.9326544917
 10
673.3314366306
 20
-880.0086960256
 10
668.3601816045
 20
-879.8819854805
 10
663.4167961819
 20
-879.5531554587
 10
658.5259020249
 20
-879.0238437311
 10
653.7118679146
 20
-878.296688675
 10
648.9986780418
 20
-877.375307985
 10
644.4098095184
 20
-876.264297912
 10
639.9681296437
 20
-874.9691891643
 10
635.6957595865
 20
-873.4964381629
 10
631.6139953589
 20
-871.8533753391
 10
627.7431599737
 20
-870.0481927788
 10
624.1025398948
 20
-868.0898832048
  0
ENDSEC
  0
SECTION
  2
OBJECTS
  0
DICTIONARY
  5
C
330
0
100
AcDbDictionary
281
     1
  3
ACAD_GROUP
350
D
  3
ACAD_LAYOUT
350
1A
  3
ACAD_MLINESTYLE
350
17
  3
ACAD_PLOTSETTINGS
350
19
  3
ACAD_PLOTSTYLENAME
350
E
  3
ACAD_SCALELIST
350
47
  0
DICTIONARY
  5
D
102
{ACAD_REACTORS
330
C
102
}
330
C
100
AcDbDictionary
281
     1
  0
DICTIONARY
  5
1A
102
{ACAD_REACTORS
330
C
102
}
330
C
100
AcDbDictionary
281
     1
  3
Layout1
350
1E
  3
Layout2
350
26
  3
Model
350
22
  0
DICTIONARY
  5
17
102
{ACAD_REACTORS
330
C
102
}
330
C
100
AcDbDictionary
281
     1
  3
Standard
350
18
  0
DICTIONARY
  5
19
102
{ACAD_REACTORS
330
C
102
}
330
C
100
AcDbDictionary
281
     1
  0
ACDBDICTIONARYWDFLT
  5
E
102
{ACAD_REACTORS
330
C
102
}
330
C
100
AcDbDictionary
281
     1
  3
Normal
350
F
100
AcDbDictionaryWithDefault
340
F
  0
DICTIONARY
  5
47
102
{ACAD_REACTORS
330
C
102
}
330
C
100
AcDbDictionary
281
     1
  3
A0
350
48
  3
A1
350
49
  3
A2
350
4A
  3
A3
350
4B
  3
A4
350
4C
  3
A5
350
4D
  3
A6
350
4E
  3
A7
350
4F
  3
A8
350
50
  3
A9
350
51
  3
B0
350
52
  3
B1
350
53
  3
B2
350
54
  3
B3
350
55
  3
B4
350
56
  3
B5
350
57
  3
B6
350
58
  3
B7
350
59
  3
B8
350
5A
  3
B9
350
5B
  3
C0
350
5C
  3
C1
350
5D
  3
C2
350
5E
  3
C3
350
5F
  3
C4
350
60
  3
C5
350
61
  3
C6
350
62
  3
C7
350
63
  3
C8
350
64
  3
C9
350
65
  3
D0
350
66
  3
D1
350
67
  3
D2
350
68
  0
LAYOUT
  5
1E
102
{ACAD_REACTORS
330
1A
102
}
330
1A
100
AcDbPlotSettings
  1

  2
none_device
  4

  6

 40
0.0
 41
0.0
 42
0.0
 43
0.0
 44
0.0
 45
0.0
 46
0.0
 47
0.0
 48
0.0
 49
0.0
140
0.0
141
0.0
142
1.0
143
1.0
 70
   688
 72
     1
 73
     0
 74
     5
  7

 75
    16
147
1.0
148
0.0
149
0.0
100
AcDbLayout
  1
Layout1
 70
     1
 71
     1
 10
0.0
 20
0.0
 11
420.0
 21
297.0
 12
0.0
 22
0.0
 32
0.0
 14
1.0000000000E+20
 24
1.0000000000E+20
 34
1.0000000000E+20
 15
-1.0000000000E+20
 25
-1.0000000000E+20
 35
-1.0000000000E+20
146
0.0
 13
0.0
 23
0.0
 33
0.0
 16
1.0
 26
0.0
 36
0.0
 17
0.0
 27
1.0
 37
0.0
 76
     0
330
1B
  0
LAYOUT
  5
26
102
{ACAD_REACTORS
330
1A
102
}
330
1A
100
AcDbPlotSettings
  1

  2
none_device
  4

  6

 40
0.0
 41
0.0
 42
0.0
 43
0.0
 44
0.0
 45
0.0
 46
0.0
 47
0.0
 48
0.0
 49
0.0
140
0.0
141
0.0
142
1.0
143
1.0
 70
   688
 72
     1
 73
     0
 74
     5
  7

 75
    16
147
1.0
148
0.0
149
0.0
100
AcDbLayout
  1
Layout2
 70
     1
 71
     2
 10
0.0
 20
0.0
 11
0.0
 21
0.0
 12
0.0
 22
0.0
 32
0.0
 14
0.0
 24
0.0
 34
0.0
 15
0.0
 25
0.0
 35
0.0
146
0.0
 13
0.0
 23
0.0
 33
0.0
 16
1.0
 26
0.0
 36
0.0
 17
0.0
 27
1.0
 37
0.0
 76
     0
330
23
  0
LAYOUT
  5
22
102
{ACAD_REACTORS
330
1A
102
}
330
1A
100
AcDbPlotSettings
  1

  2
none_device
  4
Letter_(8.50_x_11.00_Inches)
  6

 40
6.35
 41
6.35
 42
6.35000508
 43
6.35000508
 44
215.9
 45
279.4
 46
0.0
 47
0.0
 48
0.0
 49
0.0
140
0.0
141
0.0
142
1.0
143
1.0
 70
  1712
 72
     1
 73
     0
 74
     0
  7

 75
     0
147
1.0
148
0.0
149
0.0
100
AcDbLayout
  1
Model
 70
     1
 71
     0
 10
0.0
 20
0.0
 11
279.4
 21
215.9
 12
0.0
 22
0.0
 32
0.0
 14
0.0
 24
0.0
 34
0.0
 15
279.4
 25
215.9
 35
0.0
146
0.0
 13
0.0
 23
0.0
 33
0.0
 16
1.0
 26
0.0
 36
0.0
 17
0.0
 27
1.0
 37
0.0
 76
     0
330
1F
331
29
  0
MLINESTYLE
  5
18
102
{ACAD_REACTORS
330
17
102
}
330
17
100
AcDbMlineStyle
  2
Standard
 70
     0
  3

 62
   256
 51
90.0
 52
90.0
 71
     2
 49
0.5
 62
   256
  6
BYLAYER
 49
-0.5
 62
   256
  6
BYLAYER
  0
ACDBPLACEHOLDER
  5
F
102
{ACAD_REACTORS
330
E
102
}
330
E
  0
SCALE
  5
48
102
{ACAD_REACTORS
330
47
102
}
330
47
100
AcDbScale
 70
     0
300
1:1
140
1.0
141
1.0
290
     1
  0
SCALE
  5
49
102
{ACAD_REACTORS
330
47
102
}
330
47
100
AcDbScale
 70
     0
300
1:2
140
1.0
141
2.0
290
     0
  0
SCALE
  5
4A
102
{ACAD_REACTORS
330
47
102
}
330
47
100
AcDbScale
 70
     0
300
1:4
140
1.0
141
4.0
290
     0
  0
SCALE
  5
4B
102
{ACAD_REACTORS
330
47
102
}
330
47
100
AcDbScale
 70
     0
300
1:5
140
1.0
141
5.0
290
     0
  0
SCALE
  5
4C
102
{ACAD_REACTORS
330
47
102
}
330
47
100
AcDbScale
 70
     0
300
1:8
140
1.0
141
8.0
290
     0
  0
SCALE
  5
4D
102
{ACAD_REACTORS
330
47
102
}
330
47
100
AcDbScale
 70
     0
300
1:10
140
1.0
141
10.0
290
     0
  0
SCALE
  5
4E
102
{ACAD_REACTORS
330
47
102
}
330
47
100
AcDbScale
 70
     0
300
1:16
140
1.0
141
16.0
290
     0
  0
SCALE
  5
4F
102
{ACAD_REACTORS
330
47
102
}
330
47
100
AcDbScale
 70
     0
300
1:20
140
1.0
141
20.0
290
     0
  0
SCALE
  5
50
102
{ACAD_REACTORS
330
47
102
}
330
47
100
AcDbScale
 70
     0
300
1:30
140
1.0
141
30.0
290
     0
  0
SCALE
  5
51
102
{ACAD_REACTORS
330
47
102
}
330
47
100
AcDbScale
 70
     0
300
1:40
140
1.0
141
40.0
290
     0
  0
SCALE
  5
52
102
{ACAD_REACTORS
330
47
102
}
330
47
100
AcDbScale
 70
     0
300
1:50
140
1.0
141
50.0
290
     0
  0
SCALE
  5
53
102
{ACAD_REACTORS
330
47
102
}
330
47
100
AcDbScale
 70
     0
300
1:100
140
1.0
141
100.0
290
     0
  0
SCALE
  5
54
102
{ACAD_REACTORS
330
47
102
}
330
47
100
AcDbScale
 70
     0
300
2:1
140
2.0
141
1.0
290
     0
  0
SCALE
  5
55
102
{ACAD_REACTORS
330
47
102
}
330
47
100
AcDbScale
 70
     0
300
4:1
140
4.0
141
1.0
290
     0
  0
SCALE
  5
56
102
{ACAD_REACTORS
330
47
102
}
330
47
100
AcDbScale
 70
     0
300
8:1
140
8.0
141
1.0
290
     0
  0
SCALE
  5
57
102
{ACAD_REACTORS
330
47
102
}
330
47
100
AcDbScale
 70
     0
300
10:1
140
10.0
141
1.0
290
     0
  0
SCALE
  5
58
102
{ACAD_REACTORS
330
47
102
}
330
47
100
AcDbScale
 70
     0
300
100:1
140
100.0
141
1.0
290
     0
  0
SCALE
  5
59
102
{ACAD_REACTORS
330
47
102
}
330
47
100
AcDbScale
 70
     0
300
1/128" = 1'-0"
140
0.0078125
141
12.0
290
     0
  0
SCALE
  5
5A
102
{ACAD_REACTORS
330
47
102
}
330
47
100
AcDbScale
 70
     0
300
1/64" = 1'-0"
140
0.015625
141
12.0
290
     0
  0
SCALE
  5
5B
102
{ACAD_REACTORS
330
47
102
}
330
47
100
AcDbScale
 70
     0
300
1/32" = 1'-0"
140
0.03125
141
12.0
290
     0
  0
SCALE
  5
5C
102
{ACAD_REACTORS
330
47
102
}
330
47
100
AcDbScale
 70
     0
300
1/16" = 1'-0"
140
0.0625
141
12.0
290
     0
  0
SCALE
  5
5D
102
{ACAD_REACTORS
330
47
102
}
330
47
100
AcDbScale
 70
     0
300
3/32" = 1'-0"
140
0.09375
141
12.0
290
     0
  0
SCALE
  5
5E
102
{ACAD_REACTORS
330
47
102
}
330
47
100
AcDbScale
 70
     0
300
1/8" = 1'-0"
140
0.125
141
12.0
290
     0
  0
SCALE
  5
5F
102
{ACAD_REACTORS
330
47
102
}
330
47
100
AcDbScale
 70
     0
300
3/16" = 1'-0"
140
0.1875
141
12.0
290
     0
  0
SCALE
  5
60
102
{ACAD_REACTORS
330
47
102
}
330
47
100
AcDbScale
 70
     0
300
1/4" = 1'-0"
140
0.25
141
12.0
290
     0
  0
SCALE
  5
61
102
{ACAD_REACTORS
330
47
102
}
330
47
100
AcDbScale
 70
     0
300
3/8" = 1'-0"
140
0.375
141
12.0
290
     0
  0
SCALE
  5
62
102
{ACAD_REACTORS
330
47
102
}
330
47
100
AcDbScale
 70
     0
300
1/2" = 1'-0"
140
0.5
141
12.0
290
     0
  0
SCALE
  5
63
102
{ACAD_REACTORS
330
47
102
}
330
47
100
AcDbScale
 70
     0
300
3/4" = 1'-0"
140
0.75
141
12.0
290
     0
  0
SCALE
  5
64
102
{ACAD_REACTORS
330
47
102
}
330
47
100
AcDbScale
 70
     0
300
1" = 1'-0"
140
1.0
141
12.0
290
     0
  0
SCALE
  5
65
102
{ACAD_REACTORS
330
47
102
}
330
47
100
AcDbScale
 70
     0
300
1-1/2" = 1'-0"
140
1.5
141
12.0
290
     0
  0
SCALE
  5
66
102
{ACAD_REACTORS
330
47
102
}
330
47
100
AcDbScale
 70
     0
300
3" = 1'-0"
140
3.0
141
12.0
290
     0
  0
SCALE
  5
67
102
{ACAD_REACTORS
330
47
102
}
330
47
100
AcDbScale
 70
     0
300
6" = 1'-0"
140
6.0
141
12.0
290
     0
  0
SCALE
  5
68
102
{ACAD_REACTORS
330
47
102
}
330
47
100
AcDbScale
 70
     0
300
1'-0" = 1'-0"
140
12.0
141
12.0
290
     0
  0
ENDSEC
  0
EOF
